Miscellaneous / Australiana

Collingwood Football Club Theme Song

Miscellaneous / Australiana

tabs Expert expert

save to print version add songbook text version e-mail correct tuner
chordsukulelecavacokeyboardtabbassdrumsharmonicaflute Guitar Pro
close

there isn't a video lesson for this song

chords

Collingwood Football Club Theme Song

	  		Standard Tuning 
Tabbed By : Travis Bernhard 
[email protected] 
 
I love the Collingwood Football Club so I thought I'd learn the song 
Great to belt out after a great win 
Enjoy 
 
 
 
e------------------------------------------------- 
B------------------------------------------------- 
G----5-5-4-7-5-2-5-0------------------------------ 
D------------------------------------------------- 
A------------------------------------------------- 
E------------------------------------------------- 
   Good old collingwood forever 
 
 
e------------------------------------------------- 
B------------------------------------------------- 
G---2-4-5-2-0------------------------------------- 
D-------------2-5--------------------------------- 
A------------------------------------------------- 
E------------------------------------------------- 
   They know how to play the game 
 
e------------------------------------------------- 
B------------------------------------------------- 
G---5-5-4-7-5-2-5-0------------------------------- 
D------------------------------------------------- 
A------------------------------------------------- 
E------------------------------------------------- 
   Side by side they stick together  
 
e------------------------------------------------- 
B---------------3--------------------------------- 
G---0-2-4-4-5-2----------------------------------- 
D------------------------------------------------- 
A------------------------------------------------- 
E------------------------------------------------- 
   to up hold the magpie name 
 
e------------------------------------------------- 
B------------------------------------------------- 
G---5-5-4-7-5-2-5-0------------------------------- 
D------------------------------------------------- 
A------------------------------------------------- 
E------------------------------------------------- 
 
   see the barrackers all shouting 
 
e------------------------------------------------- 
B-------------5----------------------------------- 
G---2-4-5-5-7------------------------------------- 
D------------------------------------------------- 
A------------------------------------------------- 
E------------------------------------------------- 
   as all barrackers should 
 
e------------------------------------------------- 
B------------------------------------------------- 
G---5-5-4-7-5-2-5-0------------------------------- 
D------------------------------------------------- 
A------------------------------------------------- 
E------------------------------------------------- 
   oh the premierships a cakewalk 
 
e------------------------------------------------- 
B------------------------------------------------- 
G---0-2-4-4-7-7-5--------------------------------- 
D------------------------------------------------- 
A------------------------------------------------- 
E------------------------------------------------- 
   for the good ol collingwood 
 

		  

See also:

tabs Ben lee - Cigarettes Will Kill You tabs Pete Murray - Tonic tabs The Choirboys - Run To Paradise (solo) tabs Pete Murray - My Time tabs The Vines - In The Jungle (ver. 1) tabs Wolfmother - Woman
e-chords

Other versions:

tabs Miscellaneous / Australiana - Collingwood Football Club Theme Song
auto scroll beats size up size down change color hide chords drawings
tab show chords e-chords YouTube Clip e-chords hide all tabs e-chords go to top tab

share