MinistÚrio Trazendo a Arca

Na C˘rte do Egito

MinistÚrio Trazendo a Arca

tabs Advanced advanced

by  DIEGOU

save to print version add songbook text version e-mail correct tuner
chordsukulelecavacokeyboardtabbassdrumsharmonicaflute Guitar Pro
close

there isn't a video lesson for this song

chords

Na C˘rte do Egito

	  		                           Na corte do Egito  
1║ parte  
E|---------------------------------------3x------------------------------ 
B|---10--8--10-----10--11--10--8--10------------------------------------- 
G|--------------7---------------------7---------------------------------- 
D|-----------------------------------------------------------------------  
A|----------------------------------------------------------------------- 
E|----------------------------------------------------------------------- 

2┬░ parte 
E|-----------------------------------------------------------------------  
B|---------------11--10--8--10---11--10--8------------------------------- 
G|--10--9--7--9-----------------------------10--------------------------- 
D|-----------------------------------------------------------------------  
A|-----------------------------------------------------------------------  
E|-----------------------------------------------------------------------  


E|--------------------------------------3x------------------------------- 
B|--10--8--10----10--11--10--8--10--------------------------------------- 
G|-------------7--------------------7------------------------------------ 
D|-----------------------------------------------------------------------  
A|-----------------------------------------------------------------------  
E|----------------------------------------------------------------------- 

2┬░ parte 
E|----------------------------------------------------------------------- 
B|---------------11-10--8--10--11--10--8--------------------------------- 
G|--10--9--7--9---------------------------10----------------------------- 
D|----------------------------------------------------------------------- 
A|----------------------------------------------------------------------- 
E|----------------------------------------------------------------------- 

                             by: ridllan cunha 
              
     na proxima eu coloco o solo, treine bastante e se enpenhe ao maximo 
                                bom estudo           

		  

See also:

tabs Oficina G3 - Espelhos Mßgicos (intro ac˙stico) tabs Atmosfera de AdorašŃo - Aleluia tabs Oficina G3 - o tempo (ver. 2) tabs Diante do Trono - Me Ama tabs Oficina G3 - Deus Eterno tabs Novo Som - Acredita
e-chords

Other versions:

tabs Trazendo a Arca - Na Corte Do Egito tabs MinistÚrio Trazendo a Arca - Na C˘rte do Egito
auto scroll beats size up size down change color hide chords drawings
tab show chords e-chords YouTube Clip e-chords hide all tabs e-chords go to top tab

share