Metallica

home > Metallica

The Outlaw Torn Tab

Metallica

Difficulty: ExpertExpert

tuner correct add songbook print version text version save to e-mail
chordsukulelecavacokeyboardtabbassdrummharmonicsflute Guitar Pro
chords

The Outlaw Torn

Year: 1996 - Album: Load

  		 
Intro:          Tune Guitars Down 1/2 step 
|------------------------------------------------Bend-1/2------| 
|.------------------------------------------------Up&Down------| 
|---------------------------------------------------^----------| 
|---------------------------------------------------4----------| 
|.-5--7-----7-----5--7-----5--7-----5--7-----7------5----5--5--| 
|--0--0--0--0--0--0--0--0--0--0--0--0--0--0--0--0--------------| 
        pm    pm       pm       pm        pm   pm 
|---------------------| 
|--------------------.| 
|----^---------^------| 
|----4------4--4------| 
|5---5---5--5--5---5-.| 
|---------------------| 
 
_______________________________________________________ 
Contribuição: ([email protected]) 

	  

Search Paypal
auto scroll beats size up size down change color hide chords drawings
tab show chords e-chords YouTube Clip e-chords hide all tabs e-chords go to top tab