Metallica

home > Metallica

Some Kind Of Monster Tab

Metallica

Difficulty: BeginnerBeginner

by Willian89

tuner correct add songbook print version text version save to e-mail
chordsukulelecavacokeyboardtabbassdrumsharmonicsflute Guitar Pro
chords

Some Kind Of Monster

  		Tuning: Drop B   
 
Low-  (B  F#  B  E  G#  C#)  -High 
 
Intro - Both gtrs 
c#  ------------------------|-----| 
G# -------------------------|-----| 
E  -------------------------|-----| 
B  -------------------------|-----| 
F# -------------------------|-----| 
B  0-0-3-5-0--0-3-5-0-3-5-0-|-3-5-| 
 
Main Riff - Both Gtrs 
F# 0-00-3-5-0-0-0-3-5-0-3-5-0--3-5-| 
B  0-00-3-5-0-0-0-3-5-0-3-5-0--3-5-| 
              .       .     . 
This version of the riff is used a lot in the song too - Both gtrs 
F# 000000-3-5-0--0-3333-5-0-3333-5-0-333-5-| 
B  000000-3-5-0--0-3333-5-0-3333-5-0-333-5-| 
 
 
Riff One - Gtr I 
c# ---------|-0-| 
G# ---------|-0-| 
E  ---------|-0-| 
B  ---------|-0-| 
F# 333--5-0-|-0-| 
B  333--5-0-|---| 
 
Riff One - Gtr II 
B  0-3-5-0-|-7b-| 
F# --------|----| 
B  --------|----| 
 
 
Verse Riff - Gtr I 
F# ---5---55-5-| 
B  00---0------| 
 
Verse Riff - Gtr II 
F# ----------| 
B  5bgr-4bgr-| 
 
 
Interlude One - Gtr I 
F# --------| 
B  00-33-1-| 
   .. .. . 
 
Interlude One - Gtr II 
B  -------7b-| 
F# ----------| 
B  0-0--0----| 
   . 
 
 
 
Pre-Chorus- Both Gtrs 
F# 1--1--1-1--1-|-3-4-| 
B  1--1--1-1--1-|-3-4-| 
 
 
Chorus - Both Gtrs 
F# ----------------|----------------------------------| 
B  3-5-0-0-3-3-5-0-|-3-5-0-3-5-0-2-5-0-3-5-00-5-3-5-0-| 
 
 
 
Interlude Two - Gtr I 
B  ------3-4-----|---|-----| 
F# --------------|-1-|-----| 
B  0--0------000-|-1-|-111-| 
             ...     ... 
 
Interlude Two (PII) - Gtrs I and II 
F# 0-44-0-44-|-----|-------| 
B  0-44-0-44-|-000-|-5s6-4-| 
 
 
 
Chord Part - Gtrs I and II 
E  7-6-5-4-7-6-5-4-|-7s4-| 
B  7-6-5-4-7-6-5-4-|-7s4-| 
F# 5-4-3-2-5-4-3-2-|-5s2-| 
B  ----------------|-----| 
 
 
 
Outro - Gtr I 
E  15-15-15-13-13-13-13H15-13H15-13-| 
B  ---------------------------------| 
F# ---------------------------------| 
B  ---------------------------------| 
 

	  

Full key step upFull key step up
Half key step upHalf key step up
Half key step downHalf key step down
Full key step downFull key step down
Search Paypal
auto scroll beats size up size down change color hide chords drawings
tab show chords e-chords YouTube Clip e-chords hide all tabs e-chords go to top tab