Metallica

home > Metallica

Rebel Of Babylon Tab

Metallica

Difficulty: ExpertExpert

by carlluz

tuner correct add songbook print version text version save to e-mail
chordsukulelecavacokeyboardtabbassdrumsharmonicsflute Guitar Pro
chords

Rebel Of Babylon

  		
standard tuning: E A D G B e 

guitar 1 
|------------------------------------------------------| 
|------------------------------------------------------| 
|--2------------2------------2------------2------------| 
|--2----2----2--2----2----2--2----2----2--2----2----2--| 
|--0----0----0--0----0----0--0----0----0--0----0----0--| 
|------------------------------------------------------| 
                                                                           

guitar 1 
|------------------------------------------------------| 
|------------------------------------------------------| 
|--2------------2------------2------------2------------| 
|--2----2----2--2----2----2--2----2----2--2----2----2--| \ 
|--0----0----0--0----0----0--0----0----0--0----0----0--|  \ 
|------------------------------------------------------|   \ 
                                                            \ x2 
guitar 2                                                    / 
|--0---------------------------------------------------|   / 
|--1---------------------------------------------------|  / 
|--2---------------------------------------------------| / 
|--2---------------------------------------------------| 
|--0---------------------------------------------------| 
|------------------------------------------------------| 
                                                                           

guitar 1 
|-------------------------------------------------------------------| 
|-------------------------------------------------------------------| 
|--2------------2------------2------------2------------2------------| 
|--2----2----2--2----2----2--2----2----2--2----2----2--2----2----2--| \ 
|--0----0----0--0----0----0--0----0----0--0----0----0--0----0----0--|  \ 
|-------------------------------------------------------------------|   \ 
                                                                         \ x2 
guitar 2                                                                 / 
|--1------------0------------1------------0-------------------------|   / 
|--3------------1------------3------------1-------------------------|  / 
|--2------------2------------2------------2-------------------------| / 
|--0------------2------------0------------2-------------------------| 
|---------------0------------0------------0-------------------------| 
|-------------------------------------------------------------------| 
                                                                           

guitar 1 
|-------------------------------------------------------------------| 
|-------------------------------------------------------------------| 
|--2------------2------------2------------2------------2------------| 
|--2----2----2--2----2----2--2----2----2--2----2----2--2----2----2--| 
|--0----0----0--0----0----0--0----0----0--0----0----0--0----0----0--|   
|-------------------------------------------------------------------|   
                                                            
guitar 2                                                   
|--1------------0------------1------------0-------------------------|  
|--3------------1------------3------------1-------------------------|   
|--2------------2------------2------------2-------------------------|   
|--0------------2------------0------------2-------------------------|   
|---------------0------------0------------0-------------------------|   
|-------------------------------------------------------------------|   
                                                           
guitar 3                                                   
|---------------5------------5------------5------------5------------| 
|------------5------------5------------5------------5------------5--| 
|-------5------------5------------5------------5------------5-------| 
|-------------------------------------------------------------------| 
|-------------------------------------------------------------------| 
|-------------------------------------------------------------------| 
                                                                           

guitar 1 
|------------------------------------------------------| 
|------------------------------------------------------| 
|--2------------2------------2------------2------------| 
|--2----2----2--2----2----2--2----2----2--2----2----2--| 
|--0----0----0--0----0----0--0----0----0--0----0----0--|   
|------------------------------------------------------|   
                                                            
guitar 2                                                   
|--1------------0------------1------------0------------|  
|--3------------1------------3------------1------------|   
|--2------------2------------2------------2------------|   
|--0------------2------------0------------2------------|   
|---------------0------------0------------0------------|   
|------------------------------------------------------|   
                                                           
guitar 3                                                   
|---------------5------------5------------5------------| 
|------------5------------5------------5------------5--| 
|-------5------------5------------5------------5-------| 
|------------------------------------------------------| 
|------------------------------------------------------| 
|------------------------------------------------------| 
                                                                           

guitar 1 
|------------------------------------------------------| 
|------------------------------------------------------| 
|------------------------------------------------------| 
|--2------------2------------2------------2------------| 
|--2----2----2--2----2----2--2----2----2--2----2----2--| 
|--0----0----0--0----0----0--0----0----0--0----0----0--| 

guitar 2 
|--0------------0------------1------------3------------| 
|--0------------0------------3------------3------------| 
|--1------------1------------2------------2------------| 
|--2------------2------------0------------0------------| 
|--2------------2--------------------------------------| 
|--0------------0--------------------------------------| 
                                                                           

guitar 1 & 2 
|---------------------------| 
|---------------------------| 
|---------------------------| 
|---------------------------| 
|------------------5-5------| 
|--0-0-0-0-0-0-6-6-----4-4--| 
                                                                           

guitar 1 & 2 
|----------------------------------| 
|----------------------------------| 
|----------------------------------| x3 
|----------------------------------| 
|------------------5-5-------------| 
|--0-0-0-0-0---6-------4---3-3-2/--| 
                                                                           

guitar 1 & 2 
|-----------------------------------| 
|-----------------------------------| 
|-----------------------------------| 
|-----------------------------------| 
|-----------------------------------| 
|--0-0-0-0-0---6---3p0-0-0-0-0-0-0--| 
                       . . . . . . 
                                                                           

guitar 1 & 2 
|----------------------------------| 
|----------------------------------| 
|----------------------------------| x3 
|----------------------------------| 
|------------------5-5-------------| 
|--0-0-0-0-0---6-------4---3-3-2/--| 
                                                                           

guitar 1 & 2 
|-----------------------------------| 
|-----------------------------------| 
|-----------------------------------| 
|-----------------------------------| 
|-----------------------------------| 
|--0-0-0-0-0---6---3p0-0-0-0-0-0-0--| 
                       . . . . . . 
                                                                          

guitar 1 & 2 
|----------------------------------------------------------------| 
|----------------------------------------------------------------| 
|----------------------------------------------------------------| x2 
|----------------------3---------3----6--------------------------| 
|--2----5---------5----1---------1----4---------0-1-0---0--------| 
|--0--0-3--000000-3--0----000000----0----000000-------3---3-2-1--| 
      .    ......    .    ......    .    ...... . . . . . . . .  
                                                                           

guitar 1 & 2 
|--------------------------------| 
|--------------------------------| 
|--------------------------------| x4 
|--------------------------------| 
|--2----5------------------------| 
|--0--0-3--00000000000000000000--| 
      .    .................... 
                                                                           

guitar 1 & 2 
|---------------------------------| 
|---------------------------------| 
|---------------------------------| x2 
|----------------------3----------| 
|--2----5---------5----1----------| 
|--0--0-3--000000-3--0----000000--| 
      .    ......    .    ...... 
                                                                           

guitar 1 & 2 
|----------------------------------------------------------------| 
|----------------------------------------------------------------| 
|----------------------------------------------------------------| 
|----------------------3---------3----6--------------------------| 
|--2----5---------5----1---------1----4---------0-1-0---0--------| 
|--0--0-3--000000-3--0----000000----0----000000-------3---3-2-1--| 
      .    ......    .    ......    .    ...... . . . . . . . .  
                                                                           

guitar 1 & 2 
|-------------------------------------------------------------------| 
|-------------------------------------------------------------------| 
|------------------5-5-5-5-5-5-5-5-7-7-7-7-7-7-7-7------------------| x2 
|--3-3-3-3-3-3-3-3-5-5-5-5-5-5-5-5-7-7-7-7-7-7-7-7-7-7-7-7-7-7-7-7--| 
|--3-3-3-3-3-3-3-3-3-3-3-3-3-3-3-3-5-5-5-5-5-5-5-5-7-7-7-7-7-7-7-7--| 
|--1-1-1-1-1-1-1-1-3-3-3-3-3-3-3-3-5-5-5-5-5-5-5-5-5-5-5-5-5-5-5-5--| 
                                                                           

guitar 1 & 2 
|-------------------------------------------------------| 
|-------------------------------------------------------| 
|----------------------------------------------------7--| 
|--2-------------------------------3-----------------7--| 
|--2---2-2-2-2-2-2-2-2-2-2-2-2-2-2-3-----------------5--| 
|--0---0-0-0-0-0-0-0-0-0-0-0-0-0-0-1--------------------| 
       . . . . . . . . . . . . . . 
                                                                           

guitar 1 
|------------------------------------------------------------------------| 
|------------------------------------------------------------------------| 
|------------------------------------------------------------------------| 
|--------------------5-/7--7---------------------------------------------| 
|--7--------7--7-\5--3-/5--5----5-/7--5--------5--------5-/7--7----10-9--| 
|--5--5--5--5--5-\3-------------3-/5--3--0--0--3--0--0--3-/5--5----8--7--| 
      .  .                               .  .     .  . 

guitar 2 
|------------------------------------------------------------------------| 
|------------------------------------------------------------------------| 
|------------------------------------------------------------------------| 
|--7---------------------------------------------------------------------| 
|--7---------------------------------------------------------------------| 
|--5---------------------------------------------------------------------| 
                                                                           

guitar 1 & 2 
|------------------------------------------------------------------------| 
|------------------------------------------------------------------------| 
|------------------------------------------------------------------------| x4 
|--------------------5-/7--7---------------------------------------------| 
|--7--------7--7-\5--3-/5--5----5-/7--5--------5--------5-/7--7----10-9--| 
|--5--5--5--5--5-\3-------------3-/5--3--0--0--3--0--0--3-/5--5----8--7--| 
      .  .                               .  .     .  . 
                                                                           

guitar 1 & 2 
|--------------------------------------------------| 
|--------------------------------------------------| 
|------------------------------------------5----7--| 
|--------------------5-/7--7---------------5----7--| 
|--7--------7--7-\5--3-/5--5----5-/7--5----3----5--| 
|--5--5--5--5--5-\3-------------3-/5--3----3----5--| 
      .  . 
                                                                           

guitar 1 & 2 
|----------------------------------------------------------------| 
|----------------------------------------------------------------| 
|----------------------------------------------------------------| x2 
|----------------------3---------3----6--------------------------| 
|--2----5---------5----1---------1----4---------0-1-0---0--------| 
|--0--0-3--000000-3--0----000000----0----000000-------3---3-2-1--| 
      .    ......    .    ......    .    ...... . . . . . . . .  
                                                                           

guitar 1 & 2 
|--------------------------------| 
|--------------------------------| 
|--------------------------------| x4 
|--------------------------------| 
|--2----5------------------------| 
|--0--0-3--00000000000000000000--| 
      .    .................... 
                                                                           

guitar 1 & 2 
|---------------------------------| 
|---------------------------------| 
|---------------------------------| x2 
|----------------------3----------| 
|--2----5---------5----1----------| 
|--0--0-3--000000-3--0----000000--| 
      .    ......    .    ...... 
                                                                           

guitar 1 & 2 
|----------------------------------------------------------------| 
|----------------------------------------------------------------| 
|----------------------------------------------------------------| 
|----------------------3---------3----6--------------------------| 
|--2----5---------5----1---------1----4---------0-1-0---0--------| 
|--0--0-3--000000-3--0----000000----0----000000-------3---3-2-1--| 
      .    ......    .    ......    .    ...... . . . . . . . .  
                                                                           

guitar 1 & 2 
|-------------------------------------------------------------------| 
|-------------------------------------------------------------------| 
|------------------5-5-5-5-5-5-5-5-7-7-7-7-7-7-7-7------------------| x2 
|--3-3-3-3-3-3-3-3-5-5-5-5-5-5-5-5-7-7-7-7-7-7-7-7-7-7-7-7-7-7-7-7--| 
|--3-3-3-3-3-3-3-3-3-3-3-3-3-3-3-3-5-5-5-5-5-5-5-5-7-7-7-7-7-7-7-7--| 
|--1-1-1-1-1-1-1-1-3-3-3-3-3-3-3-3-5-5-5-5-5-5-5-5-5-5-5-5-5-5-5-5--| 
                                                                           

guitar 1 & 2 
|-------------------------------------------------------| 
|-------------------------------------------------------| 
|----------------------------------------------------7--| 
|--2-------------------------------3-----------------7--| 
|--2---2-2-2-2-2-2-2-2-2-2-2-2-2-2-3-----------------5--| 
|--0---0-0-0-0-0-0-0-0-0-0-0-0-0-0-1--------------------| 
       . . . . . . . . . . . . . . 
                                                                           

guitar 1 
|------------------------------------------------------------------------| 
|------------------------------------------------------------------------| 
|------------------------------------------------------------------------| 
|--------------------5-/7--7---------------------------------------------| 
|--7--------7--7-\5--3-/5--5----5-/7--5--------5--------5-/7--7----10-9--| 
|--5--5--5--5--5-\3-------------3-/5--3--0--0--3--0--0--3-/5--5----8--7--| 
      .  .                               .  .     .  . 

guitar 2 
|------------------------------------------------------------------------| 
|------------------------------------------------------------------------| 
|------------------------------------------------------------------------| 
|--7---------------------------------------------------------------------| 
|--7---------------------------------------------------------------------| 
|--5---------------------------------------------------------------------| 
                                                                           

guitar 1 & 2 
|------------------------------------------------------------------------| 
|------------------------------------------------------------------------| 
|------------------------------------------------------------------------| x4 
|--------------------5-/7--7---------------------------------------------| 
|--7--------7--7-\5--3-/5--5----5-/7--5--------5--------5-/7--7----10-9--| 
|--5--5--5--5--5-\3-------------3-/5--3--0--0--3--0--0--3-/5--5----8--7--| 
      .  .                               .  .     .  . 
                                                                           

guitar 1 & 2 
|--------------------------------------------------| 
|--------------------------------------------------| 
|------------------------------------------5----7--| 
|--------------------5-/7--7---------------5----7--| 
|--7--------7--7-\5--3-/5--5----5-/7--5----3----5--| 
|--5--5--5--5--5-\3-------------3-/5--3----3----5--| 
      .  . 
                                                                           

guitar 1 & 2 
|----------------------------------------------------------------| 
|----------------------------------------------------------------| 
|----------------------------------------------------------------| x2 
|----------------------3---------3----6--------------------------| 
|--2----5---------5----1---------1----4---------0-1-0---0--------| 
|--0--0-3--000000-3--0----000000----0----000000-------3---3-2-1--| 
      .    ......    .    ......    .    ...... . . . . . . . .  
                                                                           

guitar 1 & 2 
|----------------------------------| 
|----------------------------------| 
|----------------------------------| x3 
|----------------------------------| 
|------------------5-5-------------| 
|--0-0-0-0-0---6-------4---3-3-2/--| 
                                                                           

guitar 1 & 2 
|-----------------------------------| 
|-----------------------------------| 
|-----------------------------------| 
|-----------------------------------| 
|-----------------------------------| 
|--0-0-0-0-0---6---3p0-0-0-0-0-0-0--| 
                       . . . . . . 
                                                                           

guitar 1 & 2 
|----------------------------------| 
|----------------------------------| 
|----------------------------------| x3 
|----------------------------------| 
|------------------5-5-------------| 
|--0-0-0-0-0---6-------4---3-3-2/--| 
                                                                           

guitar 1 & 2 
|-----------------------------------| 
|-----------------------------------| 
|-----------------------------------| 
|-----------------------------------| 
|-----------------------------------| 
|--0-0-0-0-0---6---3p0-0-0-0-0-0-0--| 
                       . . . . . . 
                                                                           

guitar 1 
|-------------------------------------------------| 
|-------------------------------------------------| 
|-------------------------------------------------| 
|----2-2-2---2-2---------------------2-2-2---2-2--| \ 
|----2-2-2---2-2---------------------2-2-2---2-2--|  \  
|--0-0-0-0-0-0-0-------------------0-0-0-0-0-0-0--|   \ 
   .       .                       .       .           \ x2 
                                                       / 
guitar 2                                              / 
|-------------------------------------------------|  / 
|-------------------------------------------------| / 
|----4-------------7--------6--------4------------| 
|----2-------------5--------4--------2------------| 
|----2-------------5--------4--------2------------| 
|-------------------------------------------------| 
                                                                           

(To learn rhythm guitar to the solo listen to the song you will hear what the  
riffs to play as I have already tabbed!) 

solo: guitar 2 
|-------------------------------<5>w/wah----------| 
|-----------<5>---w/wah---------<5>w/wah----------| 
|------<5>--------w/wah---------------------------| 
|-<5>-------------w/wah---------------------------| 
|-------------------------------------------------| 
|-------------------------------------------------| 
                                                                           

|--------------------------------------------------------------------| 
|-------------------------------------------------------------15b17--| 
|--4p0h4p0h4p0-w/wah-5p0h5p0h5p0-w/wah--7b9----9b11---10b12----------| 
|--------------------------------------------------------------------| 
|--------------------------------------------------------------------| 
|--------------------------------------------------------------------| 
                                                                           

|-15p12----12--------------------------------------------------------| 
|-------15----15p12-15p12----12--------------------------------------| 
|-------------------------14----14p12-14p12----12--------------------| 
|-------------------------------------------14----14p12--------------| 
|-------------------------------------------------------14-13-12-10--| 
|--------------------------------------------------------------------| 
                                                                           

|------------------------------------------------------| 
|-----------------------------------15-----------------| 
|--------------------12----12----12-14b16r14p12-14-12--| 
|-----------12-14-14----14----14-----------------------| 
|--10-12-14--------------------------------------------| 
|------------------------------------------------------| 
   .  .  .  .  .  .  .  .  .  . 
                                                                           

|---------------------------------------------------| 
|---------------------------------------------------| 
|--------16-16-------15-15-------14-14-------12-12--| 
|--14-14-------14-14-------14-14-------14-14--------| 
|---------------------------------------------------| 
|---------------------------------------------------| 
                                                                           

|--------------------------------------------15p14p12-----------------------| 
|-----------------------------------------------------17p15p12-15b17-15b17--| 
|--14b16r14p12-14p12----12----12--------------------------------------------| 
|--------------------14----14----14p12-14-----------------------------------| 
|---------------------------------------------------------------------------| 
|---------------------------------------------------------------------------| 
                                                                           

|-------------------------------------------------------------------------| 
|--15-13-12----12-12------------------------------------------------------| 
|-----------14-----------15-14-12----15-14-12-15-14-12-15-14-12-15-14-12--| 
|---------------------------------14--------------------------------------| 
|-------------------------------------------------------------------------| 
|-------------------------------------------------------------------------| 
                                                                           

|---------------------------------------------------------------------------| 
|-----------------14^-------------------------------------------------------| 
|--------12-------14^------12---15-14p12----12----12------------------------| 
|--14-14----14-14----14-14---------------14----14----14-12----12------------| 
|----------------------------------------------------------14----14-13-12\10| 
|---------------------------------------------------------------------------| 
                                                                           

|-----------------|       |-----------------------------------------| 
|-----------------| \     |-----------------------------------------| 
|-----------------|  \ x4 |-----------7--9----7--9----7--9----7--9--| 
|--5--7--5h7p5----|  /    |--5--7-/9--------------------------------| 
|--------------7--| /     |-----------------------------------------| 
|-----------------|       |-----------------------------------------| 
                                                                           

|---------------------------------------------------| 
|---------------------------------------------------| 
|--7-p9--9-----9-----9--9--9-/12-12-12-12-\7--7--7--| x2 
|---------------------------------------------------| 
|---------------------------------------------------| 
|---------------------------------------------------| 
                                                                           

|-----------------| 
|-----------------| 
|--7-p9--9--9--9--| 
|-----------------| 
|-----------------| 
|-----------------| 
                                                                           

|---------------------------------------------------------------------------| 
|---------------------------------------------------------------------------| 
|-9--9--9-/12-12-12-12/14-14-14-14\12-12-12-12\11-11-11-11\9--9--9--9\7/9\7-| 
|---------------------------------------------------------------------------| 
|---------------------------------------------------------------------------| 
|---------------------------------------------------------------------------| 
                                                                           

guitar 1 
|---------------------------------| 
|---------------------------------| 
|--------------5---4---5---2---5--|  
|--------------5---4---5---2---5--| \ 
|--------------3---2---3---0---3--|  \ 
|--2-2-2-2-2----------------------|   \ 
                                       \ x2 
guitar 2                               / 
|---------------------------------|   / 
|---------------------------------|  / 
|--------------5---4---5---2---5--| / 
|--4-4-4-4-4---5---4---5---2---5--| 
|--------------3---2---3---0---3--| 
|---------------------------------| 
                                                                           

guitar 1 
|---------------------------------| 
|---------------------------------| 
|--------------5---4---5---4---2--|  
|--------------5---4---5---4---2--| 
|--------------3---2---3---2---0--| 
|--2-2-2-2-2----------------------| 

guitar 2 
|---------------------------------| 
|---------------------------------| 
|--------------5---4---5---4---2--| 
|--4-4-4-4-4---5---4---5---4---2--| 
|--------------3---2---3---2---0--| 
|---------------------------------| 
                                                                           

guitar 1 
|---------------------------------| 
|---------------------------------| 
|--------------5---4---2----------|  
|--------------5---4---2---5---4--| 
|--------------3---2---0---5---4--| 
|--2-2-2-2-2---------------3---2--| 

guitar 2 
|---------------------------------| 
|---------------------------------| 
|--------------5---4---2----------|  
|--4-4-4-4-4---5---4---2---5---4--| 
|--------------3---2---0---5---4--| 
|--------------------------3---2--| 
                                                                           

guitar 1 
|--------------------------------------------------------------------| 
|--------------------------------------------------------------------| 
|--------------------------------------------------------------9--8--| 
|-----------------------------------------------------9--8-----------| 
|--6-h7--7--7-----6-h7--7-------7b9r7--6-----7--6--------------------| 
|--------------------------------------------------------------------| 

guitar 2 
|--------------------------------------------------------------------| 
|-------------------------------------------------------------12-11--| 
|-----------------------------------------------------9--8-----------| 
|--8-h9--9--9-----8-h9--9-------9b11r9--8----9--8--------------------| 
|--------------------------------------------------------------------| 
|--------------------------------------------------------------------| 
                                                                           

guitar 1 
|---------------------------------------------------------------------------| 
|---------------------------------------------------------------------12-11-| 
|-------------------------------------------------------------9--8----------| 
|----------------------------------------------------9--8-------------------| 
|-6-h7--7--7-----6-h7--7--------7b9r7--6-----7--6---------------------------| 
|---------------------------------------------------------------------------| 

guitar 2 
|---------------------------------------------------------------------12-11-| 
|------------------------------------------------------------12-11----------| 
|----------------------------------------------------9--8-------------------| 
|-8-h9--9--9-----8-h9--9--------9b11r9--8----9--8---------------------------| 
|---------------------------------------------------------------------------| 
|---------------------------------------------------------------------------| 
                                                                           

guitar 1 
|---------------------------------------------------------------------------| 
|---------------------------------------------------------------------------| 
|--9----9------------------9-----------9----9------------------9------------| 
|------------9----9--9--9-----9--9--9------------8----8--8--8-----8--8--8---| 
|---------------------------------------------------------------------------| 
|---------------------------------------------------------------------------| 

guitar 2 
|--12---12-----------------12----------12---12-----------------12-----------| 
|------------12---12-12-12----12-12-12-----------11---11-11-11----11-11-11--| 
|---------------------------------------------------------------------------| 
|---------------------------------------------------------------------------| 
|---------------------------------------------------------------------------| 
|---------------------------------------------------------------------------| 
                                                                           

guitar 1 
|------------------------------------------------------------------------| 
|------------------------------------------------------------------------| 
|--9----8-h9p8---------------9--8-------9----8-h9p8---------------9--8\--| 
|--------------9----9--9--9----------9--------------8----8--8--8---------| 
|------------------------------------------------------------------------| 
|------------------------------------------------------------------------| 

guitar 2 
|-12---11h12p11-------------12-11------12---11h12p11-------------12-11\--| 
|--------------12--12-12-12---------12--------------11--11-11-11---------| 
|------------------------------------------------------------------------| 
|------------------------------------------------------------------------| 
|------------------------------------------------------------------------| 
|------------------------------------------------------------------------| 
                                                                           

guitar 1 & 2 
|------------------------------------------| 
|------------------------------------------| 
|--------------------9--9-11-11-12-12------| 
|--------5-----5-----x--x--x--x--x--x------| 
|--------5-----5-----7--7--9--9-10-10-12\--| 
|--0-000-----------------------------------| 
   . ... 
                                                                           

guitar 1 & 2 
|------------------------------------------| 
|------------------------------------------| 
|--------------------8--8--9--9-11-11-12\--| 
|--------4-----4-----x--x--x--x--x--x--x---| 
|--6-666-4-----4-----6--6--7--7--9--9-10\--| 
|------------------------------------------| 
   . ... 
                                                                           

guitar 1 & 2 
|-----------------------------------------| 
|-----------------------------------------| 
|-----------------------------------------| x2 
|-----------------------------------------| 
|--2---2---------------------------2---2--| 
|--0---0---------------------------0---0--| 
   .   .                           .   . 
                                                                           

guitar 1 & 2 
|------------------------------------------------------------------------| 
|------------------------------------------------------------------------| 
|---------------------3---3--\2---------------3---3--\2------------------| 
|--5------2---2---2---3---3--\2---5-----------3---3--\2---5-------4--/5--| 
|--5------2---2---2---1---1--\0---5-----------1---1--\0---5-------4--/5--| 
|--3------0---0---0---------------3-------0---------------3-------2--/3--| 
          .   .   .                       . 
                                                                           

guitar 1 & 2 
|-----------------------------------------------------------------| 
|-----------------------------------------------------------------| 
|--------------3---3--\2---------------3---3--\2------------------| x2 
|--2---2---2---3---3--\2---5-----------3---3--\2---5-------4--/5--| 
|--2---2---2---1---1--\0---5-----------1---1--\0---5-------4--/5--| 
|--0---0---0---------------3-------0---------------3-------2--/3--| 
   .   .   .                       . 
                                                                           

guitar 1 & 2 
|-----------------------------------------| 
|-----------------------------------------| 
|-----------------------------------------| 
|--2---2---2-------2---2---2-------2---2--| 
|--2---2---2-------2---2---2-------2---2--| 
|--0---0---0-------0---0---0-------0---0--| 
   .   .   .       .   .   .       .   . 
                                                                           

guitar 1 & 2 
|-----------------------------------------------------------------| 
|-----------------------------------------------------------------| 
|--------------3---3--\2---------------3---3--\2------------------| x3 
|--2---2---2---3---3--\2---5-----------3---3--\2---5-------4--/5--| 
|--2---2---2---1---1--\0---5-----------1---1--\0---5-------4--/5--| 
|--0---0---0---------------3-------0---------------3-------2--/3--| 
   .   .   .                       . 
                                                                           

guitar 1 & 2 
|-----------------------------------------| 
|-----------------------------------------| 
|-----------------------------------------| 
|--2---2---2-------2---2---2-------2---2--| 
|--2---2---2-------2---2---2-------2---2--| 
|--0---0---0-------0---0---0-------0---0--| 
   .   .   .       .   .   .       .   . 
                                                                           

guitar 1 & 2 
|--------------------------------| 
|--------------------------------| 
|--------------------------------| 
|--------------------------------| 
|--2----5------------------------| 
|--0--0-3--00000000000000000000--| 
      .    .................... 
                                                                           

guitar 1 & 2 
|--------------------------------| 
|--------------------------------| 
|--------------------------------| 
|--------------------------------| 
|--2----5---------------2--2--2--| 
|--0--0-3--000000000000-0--0--0--| 
      .    ............ .  .  . 
                                                                           

guitar 1 & 2 
|--------------------------------| 
|--------------------------------| 
|--------------------------------| 
|--------------------------------| 
|--2----5------------------------| 
|--0--0-3--00000000000000000000--| 
      .    .................... 
                                                                           

guitar 1 & 2 
|--------------------------------| 
|--------------------------------| 
|--------------------------------| 
|--------------------------------| 
|--2----5---------------2--2--2--| 
|--0--0-3--000000000000-0--0--0--| 
      .    ............ .  .  . 
                                                                           

guitar 1 & 2 
|---------------------------------| 
|---------------------------------| 
|---------------------------------| x2 
|----------------------3----------| 
|--2----5---------5----1----------| 
|--0--0-3--000000-3--0----000000--| 
      .    ......    .    ...... 
                                                                           

guitar 1 & 2 
|----------------------------------------------------------------| 
|----------------------------------------------------------------| 
|----------------------------------------------------------------| 
|----------------------3---------3----6--------------------------| 
|--2----5---------5----1---------1----4---------0-1-0---0--------| 
|--0--0-3--000000-3--0----000000----0----000000-------3---3-2-1--| 
      .    ......    .    ......    .    ...... . . . . . . . .  
                                                                           

guitar 1 & 2 
|-------------------------------------------------------------------| 
|-------------------------------------------------------------------| 
|------------------5-5-5-5-5-5-5-5-7-7-7-7-7-7-7-7------------------| x2 
|--3-3-3-3-3-3-3-3-5-5-5-5-5-5-5-5-7-7-7-7-7-7-7-7-7-7-7-7-7-7-7-7--| 
|--3-3-3-3-3-3-3-3-3-3-3-3-3-3-3-3-5-5-5-5-5-5-5-5-7-7-7-7-7-7-7-7--| 
|--1-1-1-1-1-1-1-1-3-3-3-3-3-3-3-3-5-5-5-5-5-5-5-5-5-5-5-5-5-5-5-5--| 
                                                                           

guitar 1 & 2 
|-------------------------------------------------------| 
|-------------------------------------------------------| 
|----------------------------------------------------7--| 
|--2-------------------------------3-----------------7--| 
|--2---2-2-2-2-2-2-2-2-2-2-2-2-2-2-3-----------------5--| 
|--0---0-0-0-0-0-0-0-0-0-0-0-0-0-0-1--------------------| 
       . . . . . . . . . . . . . . 
                                                                           

guitar 1 & 2 
|------------------------------------------------------------------------| 
|------------------------------------------------------------------------| 
|------------------------------------------------------------------------| x5 
|--------------------5-/7--7---------------------------------------------| 
|--7--------7--7-\5--3-/5--5----5-/7--5--------5--------5-/7--7----10-9--| 
|--5--5--5--5--5-\3-------------3-/5--3--0--0--3--0--0--3-/5--5----8--7--| 
      .  .                               .  .     .  . 
                                                                           

guitar 1 & 2 
|--------------------------------------------------| 
|--------------------------------------------------| 
|------------------------------------------5----7--| 
|--------------------5-/7--7---------------5----7--| 
|--7--------7--7-\5--3-/5--5----5-/7--5----3----5--| 
|--5--5--5--5--5-\3-------------3-/5--3----3----5--| 
      .  . 
                                                                           

guitar 1 & 2 
|----------------------------------------------------------------| 
|----------------------------------------------------------------| 
|----------------------------------------------------------------| x2 
|----------------------3---------3----6--------------------------| 
|--2----5---------5----1---------1----4---------0-1-0---0--------| 
|--0--0-3--000000-3--0----000000----0----000000-------3---3-2-1--| 
      .    ......    .    ......    .    ...... . . . . . . . .  
                                                                           

guitar 1 & 2 
|-------------------| 
|-------------------| 
|-------------------| 
|-------------------| 
|--0----------------| 
|----3-2-1-3-2-1-0--| 
     . . .   . . . 
                                                                           

guitar 1 & 2 
|----------------------------------| 
|----------------------------------| 
|----------------------------------| x3 
|----------------------------------| 
|------------------5-5-------------| 
|--0-0-0-0-0---6-------4---3-3-2/--| 
                                                                           

guitar 1 & 2 
|-------------------------------| 
|-------------------------------| 
|-------------------------------| 
|------------------2-2-2---2-2--| 
|------------------1-1-1---1-1--| 
|--0-0-0-0-0---0-0-0-0-0-0-0-0--| 
                 .       . 
                                                                           

guitar 1 & 2 
|----------------------------------| 
|----------------------------------| 
|----------------------------------| x3 
|----------------------------------| 
|------------------5-5-------------| 
|--0-0-0-0-0---6-------4---3-3-2/--| 
                                                                           

guitar 1 & 2 
|---------------------------------| 
|---------------------------------| 
|---------------------------------| 
|----2-2-2---2-2-----2-2-2---2-2--| 
|----1-1-1---1-1-----1-1-1---1-1--| 
|--0-0-0-0-0-0-0---0-0-0-0-0-0-0--| 
   .       .       .       . 
                                                                           

guitar 1 
|-----------------| 
|-----------------| 
|-----------------| 
|----2-2-2---2-2--| 
|----1-1-1---1-1--| 
|--0-0-0-0-0-0-0--| 
   .       . 

guitar 2 
|-----------------| 
|-----------------| 
|----3-3-3---3-3--| 
|----2-2-2---2-2--| 
|----1-1-1---1-1--| 
|--0-0-0-0-0-0-0--| 
   .       . 
	  

Search Paypal
auto scroll beats size up size down change color hide chords drawings
tab show chords e-chords YouTube Clip e-chords hide all tabs e-chords go to top tab