Metallica

home > Metallica

Mercyful Fate Tab

Metallica

Difficulty: nolevelnolevel

by renejunior

tuner correct add songbook print version text version save to e-mail
chordsukulelecavacokeyboardtabbassdrumsharmonicsflute Guitar Pro
chords

Mercyful Fate

  		MERCYFUL FATE 
As recorded by Metallica 
(From the 1998 Double Album GARAGE INC.) 
Transcribed by www.mikesguitarsite.co.uk  
Words by King Diamond Music by Hank Shermann 
Arranged by Metallica  

Gtr I (Eb Ab Db Gb Bb Eb) - 'James Hetfield - Rhythm w/dist' 
Gtr II (Eb Ab Db Gb Bb Eb) - 'Kirk Hammett - Rhyth w/dist' 
Gtr III (Eb Ab Db Gb Bb Eb) - 'Kirk Hammett - Lead w/dist' 

Satan's Fall - Intro 
  Q=148 
 4/4 
  Gtr I 
         PM|   PM----|   PM------|   PM  ~ 
   Q     E E S E S E E S E S   E E S E S Q   E E 
|------|---------------------|-------------------| 
|------|---------------------|-------------------| 
|------|---------------------|-------------------| 
|------|-----4---------4-----|-----4-----------5-| 
|------|---------------------|--------------/4---| 
|-14\--|-0-2---2-2-0-2---2-2-|-0-2---2-2-3-------| 
       |-Rhy Fig 1 

  Gtr III 
                                    ~~~~~ 
   E     E      +S    E     S      +Q      S  S  S  S 
|-14----14-----(14)--14----14-----(14)----14--------------| 
|-17b19-17b19==(17)r-17b19-17b19==(17)r------17p14-17b19==| 
|---------------------------------------------------------| 
|---------------------------------------------------------| 
|---------------------------------------------------------| 
|---------------------------------------------------------| 
| 
| Gtrs I, II 
|  PM---|             PM----------------|     PM----------- 
|  E     E       S    E     S       E   E  S  E     S 
|---------------------------------------------------------| 
|---------------------------------------------------------| 
|---------------------------------------------------------| 
|----------------4-------------------------4--------------| 
|---------------------------------------------------------| 
|--0-----2------------2-----2-------0---2-----2-----2-----| 


   +S    S  S  S  S     S  S  S  S  S  S  S  E      +E 
|-------14-----------------------------------------------| 
|-(17)r----17p14-------14-16p14--------------------------| 
|----------------16b18----------16p14----14-16b19==(16)r-| 
|-------------------------------------16-----------------| 
|--------------------------------------------------------| 
|--------------------------------------------------------| 
| 
|----------|            PM---| 
|   E       E     S     E     S  Q           Q 
|--------------------------------------------------------| 
|--------------------------------------------------------| 
|--------------------------------4-----------2-----------| 
|-----------------4--------------4-----------2-----------| 
|--------------------------------2-----------0-----------| 
|---0-------2-----------2-----0--------------------------| 
                                           end Rhy Fig 1-| 

w/Rhy Fig 1 
   S  S  E  E    E    a      +E   +E   a      +E     +E 
|----------------------------------------------------------| 
|----------14---16---16b17==(16)r(16)-16b17==(16)r==(16)---| 
|-16p14----14---16---16b18==(16)r(16)-16b18==(16)r==(16)---| 
|-------16-------------------------------------------------| 
|----------------------------------------------------------| 
|----------------------------------------------------------| 


                         ~~~~~~~~~ 
   a      +E   +E   E    E    +E   E  E  E 
|------------------------------------------| 
|-16b17==(16)r(16)-------------------------| 
|-16b18==(16)r(16)-14----------------14-16-| 
|-----------------------16---(16)-16-------| 
|------------------------------------------| 
|------------------------------------------| 


   Q        S  S S  S  S S  S  S S  S  E 
|------------------------------------------| 
|------------------------------------------| 
|-16b18====16-16---16-16---16-16---16-16---| 
|------------------------------------------| 
|------------------------------------------| 
|------------------------------------------| 


                                   Verse 
                                  |-w/Rhy Fig 1 x2 
                              ~~ 
   e  e  e    e    E  +S   S  Q      +Q     Q     H 
|--------------------------------||--------------------------| 
|--------------------------------||--------------------------| 
|-16-16-16---16---16r(16)p14-----||--------------------------| 
|----------------------------16--||-(16)\--------------------| 
|--------------------------------||--------------------------| 
|--------------------------------||--------------------------| 


continue Rhy Fig 1 


  Gtrs I, II 
  B5    C5  G5 
  E E E E E E E E   E E E E E E E E 
  | |   |   |   |     |   |   |   | 
  / /   /   /   /     /   /   /   / 
|-----------------|-----------------| 
|-Rhy Fig 2           end Rhy Fig 2-| 


Rhy Fig 1 (last 2 bars) 


                                    F#5 
 w/Rhy Fig 2                        Gtr II 
                                      W          +W 
                                      |           | 
                                      /           / 

                                    Gtr I 
  W                 W                 W          +H.       Q 
|-----------------|-----------------|----------|----------------|| 
|-----------------|-----------------|----------|----------------|| 
|-----------------|-----------------|----------|----------------|| 
|-----------------|-----------------|-4--------|-(4)------------|| 
|-----------------|-----------------|-4--------|-(4)------------|| 
|-----------------|-----------------|-2--------|-(2)------/x\---|| 


 Curse Of The Pharoahs 
  A Tempo Q=148 
  +W                   W                W 
   | 
   / 

         PM|   PM|       PM  PM  ~~           PM|   PM--| 
   E  E  E E E E E E   E E E E E Q.     E  E  E E E E E E 
|--------------------|----------------|-------------------| 
|--------------------|----------------|-------------------| 
|------------5-------|-----5---7-7----|-----------5-------| 
|--5h=7--7-7-5-7-7-7-|-7-7-5---7-7----|-5h=7--7-7-5-7-7-7-| 
|--0-(0)-0-0---0-0-0-|-0-0---0--------|-0-(0)-0-0---0-0-0-| 
|--------------------|----------------|-------------------| 


    PM|   PM         PM  PM    PM|     PM|   PM 
  E E E E E E Q    E E E E E E E E   E E E E E E   +E  E 
|----------------|-----------------|---------------------| 
|----------------|-----------------|---------------------| 
|-------5---5-4--|---------5-------|-------5---7b8r(7)-5-| 
|-7-7-7-5---5-4--|-7-7-7-7-5-7-7-7-|-7-7-7-5---7b8r(7)-5-| 
|-0-0-0---0------|-0-0-0-0-----0-0-|-0-0-0---0-----------| 
|----------------|-----------------|---------------------| 


                                     Gtrs I, II 
        PM|   PM--|               ~      PM|   PM    PM 
  S S E E E E E E E   E E E E E E Q      E E E E E E E E 
|-------------------|----------------||-------------------| 
|-------------------|----------------||o------------------| 
|-7p5-------5-------|-----0-----0----||------7---5--------| 
|-7p5-7-7-7-5-7-7-7-|---2-----0------||------7---5-7---7--| 
|-----0-0-0---0-0-0-|-3-----2--------||o-0-0---0---0-0-0--| 
|-------------------|-------------3--||-------------------| 


  PM|   PM               PM--------------------------------------| 
  E E E E E Q.      4x E S S E S S E S S E S S   E S S E S S E E E E 
|-------------------||-------------------------|---------------------| 
|---------6-5tr6---o||-------------------------|---------------------| 
|-----4---7-5tr7----||-------------------------|---------------------| 
|-----4-------------||-------------------------|-------------------2-| 
|-0-0---0----------o||---4-4-4-4-4-4-4-4-4-4-4-|-4-4-4-4-4-4-4---4-0-| 
|-------------------||-0-2-2-2-2-2-2-2-2-2-2-2-|-2-2-2-2-2-2-2-0-2---| 
                     |-Rhy Fig 3 

  Gtr III 
                PM----|                              ~ 
   Q    Q     E E   E E     E E   E E      +E  +S  S Q 
|-------------------------|------------------------------| 
|-------------------------|------------------------------| 
|-------------------------|-------2-4b6====(4)r(4)p2-----| 
|-------------------------|-2-4----------------------4---| 
|-------------------2-4---|------------------------------| 
|-------3-----2-5---------|------------------------------| 
| 
| Gtrs I, II 
|       PM---------------------------------| 
| +E  E E S S E S S E S S   E S S E S    S  E   E    E E 
|-------------------------|------------------------------| 
|-------------------------|------------------------------| 
|-------------------------|------------------------------| 
|-(2)---------------------|------------------------------| 
|-(0)-4-4-4-4-4-4-4-4-4-4-|-4-4-4-4-4----4--4---2------2-| 
|-----2-2-2-2-2-2-2-2-2-2-|-2-2-2-2-2----2--2---0------0-| 
                                           end Rhy Fig 3-| 

w/Rhy Fig 3 
   ~~~ 
  +Q      +Q       H             W 
|------------------------------|---------------------| 
|------------------------------|---------------------| 
|------------------------------|---------------------| 
|-(4)-----(4)\-----------------|---------------------| 
|------------------------------|---------------------| 
|------------------------------|---------------------| 


   Q     S     +S   E    S     +S   E    S     +S   E 
|-------19b21r(19)p17---19b21r(19)p17---19b21r(19)p17---| 
|-------------------------------------------------------| 
|-------------------------------------------------------| 
|-------------------------------------------------------| 
|-------------------------------------------------------| 
|-------------------------------------------------------| 


                                  ~~~~~~ 
   E      E    E  E    E  +S   S  Q 
|-19b21==19---19-19---19r(19)p17------|| 
|--------------------------------19---|| 
|-------------------------------------|| 
|-------------------------------------|| 
|-------------------------------------|| 
|-------------------------------------|| 


 verse 1 
w/Rhy Fig 3 
 ~~~~~~ 
   +Q       +Q       H             W 
|--------------------------------|----------------------| 
|-(19)-----(19)\-----------------|----------------------| 
|--------------------------------|----------------------| 
|--------------------------------|----------------------| 
|--------------------------------|----------------------| 
|--------------------------------|----------------------| 


   E   E     +S  +S  E   E  S     +S  +S  S E      E  E   S S E   E  Q. 
|-----------------------------------------------|---------------------------| 
|-----------------------------------------------|---------------------------| 
|-----4b6==(4)r(4)p2---4-4b6==(4)r(4)p2-----|-2-2---------------------| 
|-------------------------------------------4---|---------4p2-----2-4-----| 
|-----------------------------------------------|-------------4-------------| 
|-----------------------------------------------|---------------------------| 


Rhy Fig 3 (1st 3 bars only) 


  Gtr II 
  PM--------------|         PM--------------|           PM--------| 
  E S S E S S E E E E   +E  E   E S S E S S E E   +E  E E S S E E  E E 
|---------------------|-------------------------|----------------------| 
|---------------------|-------------------------|----------------------| 
|---------------------|-------------------------|----------------------| 
|---------------------|-------------------------|----------------------| 
|-4-4-4-4-4-4-4---4-6-|-(6)-------------6-6-6-7-|-(7)-7--------------9-| 
|-2-2-2-2-2-2-2-0-2-4-|-(4)-4---4-4-4-4-4-4-4-5-|-(5)-5-5-5-5-5-7--9-7-| 
|-Rhy Fill 1A       --|-Rhy Fig 4A 
| 
| Gtr I 
| PM----------|             PM------|   PM            PM  PM| 
| E S S E S S E E E E   +E  S S E S S E S S E E   +E  E E S S E E  E E 
|---------------------|-------------------------|----------------------| 
|---------------------|-------------------------|----------------------| 
|---------------------|-------------------------|----------------------| 
|---------------------|-------------------------|----------------------| 
|-4-4-4-4-4-4-4---4-6-|-(6)-----------6-------7-|-(7)---7-----7-9-11-9-| 
|-2-2-2-2-2-2-2-0-2-4-|-(4)-4-4-4-4-4-4-4-4-4-5-|-(5)-5-5-5-5-5-7--9-7-| 
|-Rhy Fill 1        --|-Rhy Fig 4 

  +E  E   Q     Q     Q     S  S  S  S  E  S  S  E  E Q 
|------------------------|---------------------------------|| 
|------------------------|---------------------------------|| 
|------------------------|---------------------------------|| 
|-----9---9-----9-----9--|-11-11-11-11-11-11-11-11---------|| 
|-(9)--------------------|---------------------------------|| 
|-(7)-7---7-----7-----7--|--9--9--9--9--9--9--9--9-/x-x\---|| 
|                                           end Rhy Fig 4A-| 
| 
|     PM|   PM|   PM|                               PM---| 
| +E  S S E S S E S S Q     E     S  S  E  S  S  E  E E  E 
|------------------------|---------------------------------|| 
|------------------------|---------------------------------|| 
|------------------------|---------------------------------|| 
|------------------------|---------------------------------|| 
|-(9)-----9-----9-----9--|-11----11-11-11-11-11-11----4----|| 
|-(7)-7-7-7-7-7-7-7-7-7--|--9-----9--9--9--9--9--9--0-2--0-|| 
                                             end Rhy Fig 4-| 

 Chorus 
  Gtrs I, II 
  PM--|       PM              PM        PM--|       PM 
  E E E E +E  E E E   +E  E E E Q  Q    E E E E +E  E E E 
|-------------------|-----------------|-------------------| 
|-------------------|-----------------|-------------------| 
|-------------------|-----------------|-------------------| 
|-------2-(2)---5-4-|-(4)-5-4---2-----|-------2-(2)---7-6-| 
|-4---4-0-(0)---3-2-|-(2)-3-2---0--2--|-4---4-0-(0)---5-4-| 
|-2-0-2-------0-----|---------0----0--|-2-0-2-------0-----| 
|-Rhy Fig 5 

                    PM--|       PM              PM 
  +E  E E E Q  Q    E E E E +E  E E E   +E  E E E Q  Q 
|-----------------|-------------------|-----------------| 
|-----------------|-------------------|-----------------| 
|-----------------|-------------------|-----------------| 
|-(6)-7-6------2--|-------2-(2)---5-4-|-(4)-5-4---2-----| 
|-(4)-5-4-0-2--0--|-4---4-0-(0)---3-2-|-(2)-3-2---0--2--| 
|-----------0-----|-2-0-2-------0-----|---------0----0--| 
    end Rhy Fig 5-| 

  Gtr II 
  PM          PM 
  E E E E +E  E E E   +Q   Q   E E Q    W          +H.      E. S 
|-------------------|-----------------|----------|----------------|| 
|-------------------|-----------------|----------|----------------|| 
|-------------------|------6--/9-9-9--|-8--------|-(8)------------|| 
|-------2-(2)---7-6-|-(6)-------------|----------|----------------|| 
|-4---4-0-(0)---5-4-|-(4)--4--/7-7-7--|-6--------|-(6)---------2--|| 
|-2-0-2-------0-----|-----------------|----------|----------x\-0--|| 
| 
| Gtr I 
| PM          PM 
| E E E E +E  E E E   +Q   Q   Q   Q    W          +H.      E. S 
|-------------------|-----------------|----------|----------------|| 
|-------------------|-----------------|----------|----------------|| 
|-------------------|-----------------|----------|----------------|| 
|-------2-(2)---7-6-|-(6)--6S==9---9--|-8--------|-(8)------------|| 
|-4---4-0-(0)---5-4-|-(4)--4S==7---7--|-6--------|-(6)---------2--|| 
|-2-0-2-------0-----|-----------------|----------|----------x\-0--|| 


    +E  E E   S S +E  E E   S S   +E  E E   S S +E  E E   S S 
||------------------------------|-----------------------------| 
||o-----------------------------|-----------------------------| 
||------------------------------|-----------------------------| 
||----------------------------2-|-(2)---------4-(4)-2-----x---| 
||o-(2)-4-----x-4-(4)-5-----x-0-|-(0)-4-----x-2-(2)-0-----x-2-| 
||--(0)-2-----x-2-(2)-3-----x---|-----2-----x---------------0-| 
||-Rhy Fig 6A 
| 
|         PM--|         PM--|           PM--|         PM--| 
|   +E  E S S S S +E  E S S S S   +E  E S S S S +E  E S S S S 
||------------------------------|-----------------------------| 
||o-----------------------------|-----------------------------| 
||------------------------------|-----------------------------| 
||----------------------------2-|-(2)---------4-(4)-2---------| 
||o-(2)-4-------4-(4)-5-------0-|-(0)-4-------2-(2)-0-0-0-0-2-| 
||--(0)-2-2-2-2-2-(2)-3-3-3-3---|-----2-2-2-2---------------0-| 
||-Rhy Fig 6 

  +E  E E   S S +E  E E   S S 
|-----------------------------| 
|-----------------------------| 
|-----------------------------| 
|---------------------------2-| 
|-(2)-4-----x-4-(4)-5-----x-0-| 
|-(0)-2-----x-2-(2)-3-----x---| 
| 
|       PM--|         PM--| 
| +E  E S S S S +E  E S S S S 
|-----------------------------| 
|-----------------------------| 
|-----------------------------| 
|---------------------------2-| 
|-(2)-4-------4-(4)-5-------0-| 
|-(0)-2-2-2-2-2-(2)-3-3-3-3---| 


 1.                         2. 
                                               Gtr III 
  +E  E E   S S Q  E. S      H            Q  E E 
|------------------------||-----------------------|| 
|-----------------------o||-----------------------|| 
|------------------------||-----------------------|| 
|-(2)-----------4--2-----||-(2)-----------4--2-4/-|| 
|-(0)-4-----x-x-2--0--2-o||-(0)-4-----x-x-2--0----|| 
|-----2-----x-x-------0--||-----2-----x-x---------|| 
|         end Rhy Fig 6A-|   E  E E   S S Q  Q 
| 
|       PM--|                     PM--| 
| +E  E S S e   Q  E. S      E  E S S e   Q  Q 
|------------------------||-----------------------|| 
|-----------------------o||-----------------------|| 
|------------------------||-----------------------|| 
|-(2)-----------4--2-----||-(2)-----------4--2----|| 
|-(0)-4---------2--0--2-o||-(0)-4---------2--0----|| 
|-----2-2-2-2---------0--||-----2-2-2-2-----------|| 
           end Rhy Fig 6-| 

 Guitar Solo - Double Time 
  Gtr III 
                                   ~~~~~~~ 
    E.      S  +S   S  E   E.      S  +S  S  E 
|------------------------------------------------| 
|------------------------------------------------| 
|--------------------------9---------------------| 
|-/11------11-(11)-11-11---9------11-(11)-9h11---| 
|------------------------------------------------| 
|------------------------------------------------| 
| 
| Gtrs I, II 
|   PM-----------------------------------------| 
|   S  S S  S   S   S  S S S  S S  S   S  S  S S 
|------------------------------------------------| 
|------------------------------------------------| 
|------------------------------------------------| 
|------------------------------------------------| 
|---4--4-4--4---4---4--4-4-4--4-4--4---4--4--4-4-| 
|------------------------------------------------| 
|-Rhy Fig 7 

   S  S  S  S  +S   S  E  E. S +S  S  E 
|---------------------------------------| 
|------------------------11--9-(9)-x----| 
|------------------------11--9-(9)-x----| 
|-11-11-11-11-(11)-11-11--------------9-| 
|---------------------------------------| 
|---------------------------------------| 
| 
|  S  S  S  S   S   S  E  E. S +S  E. 
|---------------------------------------| 
|---------------------------------------| 
|-------------------------4--4-(4)-4----| 
|--6--6--6--6---6---6-----4--4-(4)-4----| 
|--4--4--4--4---4---4--0--2--2-(2)-2----| 
|---------------------------------------| 
                          end Rhy Fig 7-| 

w/Rhy Fig 7 x2.5 
                                                                                       ~~~ 
   E   S  S  +S   S  S  S E    S  S  +S   S  E     E    E        +E     E  S S  S  S   Q 
|------------------------------------------------|----------------------9--------------------| 
|------------------------------------------------|-9----------------------12p9----9--------| 
|-------------------------9h==10-----------------|-9---11b13====(11)r----------11------9-----| 
|-11p==9-11-(11)-11-11-11--------11-(11)-11-11---|-------------------------------------------| 
|------------------------------------------------|-------------------------------------------| 
|------------------------------------------------|-------------------------------------------| 


    E.      S  +S   S  E   E       +S    S  +S   S  S  S 
|----------------------------------------------------------| 
|--------------------------9-------(9)---------------------| 
|--------------------------9b11====(9)r--------------------| 
|-/11------11-(11)-11-11----------------11-(11)-11-11-11---| 
|----------------------------------------------------------| 
|----------------------------------------------------------| 


                               ~~~~~~    PM| 
   E.      S  +S  S  E  S S  S S +S  S   S  S 
|---------------------------------------------| 
|---------11-(11)------11p9-------------------| 
|-11------11-(11)-9-11-11p9----9-(9)-9--10-10-| 
|---------------------------11----------------| 
|---------------------------------------------| 
|---------------------------------------------| 


   S S  S S +S  S E    S S  S S +S  S E 
|-----------------------------------------| 
|-----------------9-----------------9-----| 
|-11p9----9-(9)-9-----11p9----9-(9)---9---| 
|------11------------------11-------------| 
|-----------------------------------------| 
|-----------------------------------------| 


   S S  S S  S    S S  S S  S S  S E      S  S 
|-------------------9------------------------------|| 
|-----------------9---12p9------------------14tr17-|| 
|-11p9----9-11b13----------11p9----9b9.5-----------|| 
|------11-----------------------11-------11--------|| 
|--------------------------------------------------|| 
|--------------------------------------------------|| 
| 
|  S S  S S  S    S E    Q         E      S  S 
|--------------------------------------------------|| 
|--------------------------------------------------|| 
|------------------------4---------4------x--------|| 
|--6-6--6-6--6----6------4---------4------x--------|| 
|--4-4--4-4--4----4-0----2---------2------x--2-----|| 
|--------------------------------------------0-----|| 

w/Rhy Fig 6 + 6 A x1.75 (both) 
               \3.5___________________________________/   \3.5___ 
   +E.        +S       +Q             +Q.            +S   S 
|---------------------------------------------------------------| 
|-(14tr17)---(14tr17)-(14tr17)-------(14tr17)-------(14)h17-----| 
|---------------------------------------------------------------| 
|---------------------------------------------------------------| 
|---------------------------------------------------------------| 
|---------------------------------------------------------------| 


          /    \1.5___________/                   \2 
   +E    +S   +S      +E     +S       +S   +E    +E    +E.      S 
|-----------------------------------------------------------------| 
|-(17)--(17)-(17)----(17)---(17)b19==(17)-(17)r=(17)--(17)-----16-| 
|--------------------------------------------------------------16-| 
|--------------------------------------------------------------16-| 
|-----------------------------------------------------------------| 
|-----------------------------------------------------------------| 


              \1/     \1/       \1/    \1/     \1/     \1/ 
   +Q        +E      +E        +E      S    S  S    E  S 
|----------------------------------------------------------| 
|-(16)------(16)----(16)------(16)-------------------------| 
|-(16)------(16)----(16)------(16)----16p==14h16p==14h16p==| 
|-(16)------(16)----(16)------(16)-------------------------| 
|----------------------------------------------------------| 
|----------------------------------------------------------| 


       \1/             \0.25/     \0.25/ 
                                               ~~ 
                |--------3--------| 
   E   S    S  +E     +E         +E         E  Q     S  S 
|---------------------------------------------------------| 
|---------------------------------------------------15-15-| 
|-14h=16p==14-(14)---(14)-------(14)-------14-14----------| 
|---------------------------------------------------------| 
|---------------------------------------------------------| 
|---------------------------------------------------------| 


                                                          TP                  TP 
                                      |------3-------| 
   S   S  S  S  Q        +S   E    S  E    E    S    S    H.                  Q 
|-17--17-17-17-17-------(17)-17------------------------|-17S=================14---------| 
|-15--15-15-15-15-------(15)-17---17-17---17---17---17-|-17S=================14---------| 
|------------------------------------------------------|--------------------------------| 
|------------------------------------------------------|--------------------------------| 
|------------------------------------------------------|--------------------------------| 
|------------------------------------------------------|--------------------------------| 


             \3.5________________/      \7 
   Q        +H                   E    S S 
|------------------------------------------| 
|-14tr17---(14tr17)------------------------| 
|-------------------------------14---14p0--| 
|------------------------------------------| 
|------------------------------------------| 
|------------------------------------------| 


                          \1/   \1/   \1/ 
                     |----3-----| 
  +Q.       +S   S  +E   +E    +E    +E.     S    +Q     Q      H 
|----------------------------------------------|---------------------------| 
|----------------------------------------------|---------------------------| 
|-(0)-------(0)-11-(11)-(11)--(11)--(11)----11-|-(11)\---------------------| 
|----------------------------------------------|---------------------------| 
|----------------------------------------------|---------------------------| 
|----------------------------------------------|---------------------------| 
| 
|                                                        PM|         PM| 
| +E  E E    S   S   Q                E   S  S    +E   E E S S +E  E E S S 
|----------------------------------------------|---------------------------| 
|----------------------------------------------|---------------------------| 
|--------------------------------------------2-|--(2)--------4-(4)-------5-| 
|-(2)----------------4----------------2---x--0-|--(0)--4-----2-(2)-4-----3-| 
|-(0)-4------x---x---2----------------0---x----|-------2-2-2-------2-2-2---| 
|-----2------x---x-----------------------------|---------------------------| 
| 
|       PM--|                                            PM|         PM| 
| +E  E S S  e       Q                E   S  S    +E   E E S S +E  E E S S 
|----------------------------------------------|---------------------------| 
|----------------------------------------------|---------------------------| 
|--------------------------------------------2-|--(2)--------4-(4)-------5-| 
|-(2)----------------4----------------2---x--0-|--(0)--4-----2-(2)-4-----3-| 
|-(0)-4--------------2----------------0---x----|-------2-2-2-------2-2-2---| 
|-----2-2-2--2---------------------------------|---------------------------| 


  Gtrs I, II 
        PM|         PM|           PM|         PM|           PM|         PM 
  +E  E E S S +E  E E S S   +E  E E S S +E  E E S S   +E  E E S S +E  E E S S 
|-------------------------|-------------------------|-------------------------| 
|-------------------------|-------------------------|-------------------------| 
|-(5)-------4-(4)-------2-|-(2)-------4-(4)-------5-|-(5)-------4-(4)---------| 
|-(3)-4-----2-(2)-4-----0-|-(0)-4-----2-(2)-4-----3-|-(3)-4-----2-(2)-4---x-2-| 
|-----2-2-2-------2-2-2---|-----2-2-2-------2-2-2---|-----2-2-2-------2-0-x-0-| 
|-------------------------|-------------------------|-------------------------| 


        PM|         PM|           PM|         PM| 
  +E  E E S S +E  E E S S   +E  E E S S +E  E E S S 
|-------------------------|-------------------------| 
|-------------------------|-------------------------| 
|-------------------------|-------------------------| 
|-(2)-------4-(4)-------5-|-(5)-------4-(4)-------2-| 
|-(0)-4-----2-(2)-4-----3-|-(3)-4-----2-(2)-4-----0-| 
|-----2-2-2-------2-2-2---|-----2-2-2-------2-2-2---| 


        PM|         PM|           PM| 
  +E  E E S S +E  E E S S   +E  E E S S +E  E E E 
|-------------------------|-----------------------| 
|-------------------------|-----------------------| 
|-------------------------|-----------------------| 
|-(2)-------4-(4)-------5-|-(5)-------4-(4)-------| 
|-(0)-4-----2-(2)-4-----3-|-(3)-4-----2-(2)-4-4---| 
|-----2-2-2-------2-2-2---|-----2-2-2-------2-2-0-| 


  Gtr III 
                               |--------------3--------------| 
   W               +H          Q      a       +Q    a       +Q 
|---------------|-----------------------------------------------| 
|-12tr15--------|-(12tr15)----15b17r(15)b17==(15)r(15)b17==(15)r| 
|---------------|-----------------------------------------------| 
|---------------|-----------------------------------------------| 
|---------------|-----------------------------------------------| 
|---------------|-----------------------------------------------| 
| 
| Gtrs I, II 
|                              |--------------3--------------| 
|  W                H          Q               Q             Q 
|---------------|-----------------------------------------------| 
|---------------|-----------------------------------------------| 
|--9------------|---7-------------------------------------------| 
|--9------------|---7----------7---------------6-------------5--| 
|--7------------|---5----------5---------------4-------------3--| 
|---------------|-----------------------------------------------| 


                              ~~~~~~~~~~ 
    a       +S   +S   Q      +E     +H 
|--------------------------------------------------| 
|-(15)b17==(15)r(15)p12-----(12)---(12)------------| 
|--------------------------------------------------| 
|--------------------------------------------------| 
|--------------------------------------------------| 
|--------------------------------------------------| 
| 
|                     PM------------------------| 
|            E        S S E   S  S   E  S S E S S 
|--------------------------------------------------| 
|--------------------------------------------------| 
|--------------------------------------------------| 
|------------4--------4-4-4---4--4---4--4-4-4-4-4--| 
|------------0--------2-2-2---2--2---2--2-2-2-2-2--| 
|--------------------------------------------------| 


    ~~~~ 
   +Q       +Q       Q   E E       +E   E   Q        S S E    E   E 
|--------------------------------|-------------------------------------| 
|-(12)-----(12)\-----------------|------7------------------------------| 
|--------------------------9b11==|=(9)r-----9b11-----9p7-----7-9---| 
|--------------------------------|-----------------------9-------------| 
|--------------------------------|-------------------------------------| 
|--------------------------------|-------------------------------------| 
| 
|   PM-------------------|              PM------------------------------ 
|   E  S S   E   S S E E E E       +E   S S E    S S E   S S  E   S  S 
|--------------------------------|-------------------------------------| 
|--------------------------------|-------------------------------------| 
|--------------------------2-----|-(2)---------------------------------| 
|---4--4-4---4---4-4-4---4-0-----|-(0)--4-4-4----4-4-4---4-4--4---4--4-| 
|---2--2-2---2---2-2-2-0-2-------|------2-2-2----2-2-2---2-2--2---2--2-| 
|--------------------------------|-------------------------------------| 


                                         ~~ 
   |-----3-----| 
   E     +E    E   S    +S  E   S    +S  Q. 
|------------------------------------------------|| 
|------------------------------------------------|| 
|-9b11r(9)p==7---9b11r(9)p7---9b11r(9)p7-------|| 
|------------------------------------------------|| 
|------------------------------------------------|| 
|------------------------------------------------|| 
| 
|-------------------------------| 
|  E         S   S E        S S E        E  E E 
|------------------------------------------------|| 
|------------------------------------------------|| 
|------------------------------------------------|| 
|--4---------4---4-4--------4-4-4----------------|| 
|--2---------2---2-2--------2-2-2--------2----2--|| 
|----------------------------------------0----0--|| 


 verse 2 
w/Rhy Fig 3 x1.75 
  +Q       Q     H             H           Q   E  E 
|----------------------------|----------------------| 
|----------------------------|-------------------17-| 
|-(7)\-----------------------|----------------------| 
|----------------------------|----------------------| 
|----------------------------|----------------------| 
|----------------------------|----------------------| 


                           ~~~~~~~ 
   E     +E   E     +E     Q.            +E 
|-19b21r(19)-19b21r(19)---19pb21========(19)r\----| 
|-------------------------------------------------| 
|-------------------------------------------------| 
|-------------------------------------------------| 
|-------------------------------------------------| 
|-------------------------------------------------| 


                        ~~~~ 
    E  E    E  E       +Q.      +E 
|-----------------------------------| 
|----------14-17b19r==(17)-----(17)s| 
|-----14----------------------------| 
|-/16-------------------------------| 
|-----------------------------------| 
|-----------------------------------| 


  Q      Q     H             H           Q   E   E 
|--------------------------|-----------------------| 
|-x\-----------------------|-----------------------| 
|--------------------------|-----------------------| 
|--------------------------|-------------------/16-| 
|--------------------------|-----------------------| 
|--------------------------|-----------------------| 


   E   S  S  +S   S  E    E  S  S  +S   S  E 
|-17--17-17-(17)---------17-17-17-(17)---------| 
|----------------------------------------------| 
|-14--14-14-(14)-14------14-14-14-(14)-14------| 
|-------------------16--------------------16---| 
|----------------------------------------------| 
|----------------------------------------------| 

w/Rhy Fill 1 + 1A                    |-w/Rhy Fig 4 + 4A 
                         ~~         ~~~~~~~~~~~~~~~~~~~~      ~ 
   E.    S  +S   S  E    Q    +E    E   +Q      Q     Q     E E 
|-17----------------------------------|-------------------------| 
|-------------------------------------|-------------------------| 
|-14----14-(14)-14-14-----------------|-------------------------| 
|-------14-(14)-14-14---16---(16)\-/6-|-(6)-----6-----6-----6-7-| 
|-------------------------------------|-------------------------| 
|-------------------------------------|-------------------------| 


   ~~~ 
  +Q    E E   Q.        E    +Q       Q      Q      Q 
|-------------------------|----------------------------| 
|-------------------------|----------------------------| 
|---------------------/11-|-(11)-----11-----11-----11--| 
|-(7)------------------/9-|--(9)------9------9------9--| 
|-------7-9---9-----------|----------------------------| 
|-------------------------|----------------------------| 


   E     E     E  E     Q    Q 
|----------------------------------|| 
|----------------------------------|| 
|-13----13----13-13----13----------|| 
|-11----11----11-11----11----------|| 
|----------------------------------|| 
|----------------------------x\----|| 


   Chorus 
 Rhy Fig 5 x2 

 3/4 
  E E E E +Q     E E E E +Q     E E E E +Q     E E E E +Q 
|--------------|--------------|--------------|--------------|| 
|--------------|--------------|--------------|--------------|| 
|-5-----4-(4)--|-5-----7-(7)--|-4-----5-(5)--|-3-----4-(4)--|| 
|-5-----4-(4)--|-5-----7-(7)--|-4-----5-(5)--|-3-----4-(4)--|| 
|-3-----2-(2)--|-3-----5-(5)--|-2-----3-(3)--|-1-----2-(2)--|| 
|--------------|--------------|--------------|--------------|| 


 A Corpse Without A Soul 
  Faster Q=196(8=s8) 
  A5(type 2) 
 4/4 
  Gtr II 
  E E Q     H          W               W 
  | 
  / 

  Gtr I 
  PM|                                  PM| 
      |-3-|    |-3-|                       |-3-|    |-3-| 
  E E E E E Q  E E E   Q  E E E Q  E   E E E E E Q  E E E 
|--------------------|---------------|--------------------| 
|--------------------|---------------|--------------------| 
|-----------5--------|-7--7-5-7-5----|-----------5--------| 
|-----7p5---5--7p5---|-7--7-5-7-5--6-|-7---7p5---5--7p5---| 
|-0-0-----7--------0-|---------------|-0-0-----7--------7-| 
|--------------------|---------------|--------------------| 
|-Rhy Fig 8 

                  PM| 
                      |-3-|    |-3-| 
  Q  E E E Q.     E E E E E Q  E E E   Q  E E E Q. 
|---------------|--------------------|---------------| 
|---------------|--------------------|---------------| 
|--------5-0----|-----------5--------|-7--7-5-7-5----| 
|-5------5-0----|-----7p5---5--7p5---|-7--7-5-7-5----| 
|----7-5--------|-0-0-----7--------0-|---------------| 
|---------------|--------------------|---------------| 
  end Rhy Fig 8-| 

                                        D5V 
  Gtr II 
            W               H           E  Q. 
                                        |  | 
                                        /  / 

  |-3-| |-3-| |-3-| |-3-|   |-3-| |-3-| 
  E E E E E E E E E E E E   E E E E E E E  Q. 
|-------------------------|-------------2--2----|| 
|-------------------------|-------------3--3----|| 
|-7p5---5-----------------|-------------2--2----|| 
|-----7---7p5-7p5---5-----|-------------0--0----|| 
|-----------------7---7-5-|-7p5s3-5p3p0-0--0----|| 
|-------------------------|---------------------|| 


    Gtr II 
w/Rhy Fig 8 
    PM| 
        |-3-|    |-3-| 
    E E E E E Q  E E E   Q  E E E Q   E 
||---------------------|----------------| 
||o--------------------|----------------| 
||------------5--------|-7--7-5-7-5-----| 
||------7p5---5--7p5---|-7--7-5-7-5---6-| 
||o-0-0-----7--------0-|----------------| 
||---------------------|----------------| 
 |-Rhy Fig 8A 


  PM| 
      |-3-|    |-3-| 
  E E E E E Q  E E E   Q  E   E   E Q. 
|--------------------|---------------------|| 
|--------------------|--------------------o|| 
|-----------5--------|------------5-0------|| 
|-7---7p5---5--7p5---|-5----------5-0------|| 
|-0-0-----7--------7-|----7---5-----------o|| 
|--------------------|---------------------|| 
                            end Rhy Fig 8A-| 


   verse 1 
    PM|                  PM| 
        |-3-|    |-3-|       |-3-|    |-3-| 
    E E E E E Q  E E E   E E E E E Q  E E E 
||---------------------|--------------------| 
||o-----------5--------|--------------------| 
||------------5--------|--------------------| 
||------7p5------7p5---|-----7p5---5--7p5---| 
||o-0-0-----7--------7-|-0-0-----7--------7-| 
||---------------------|--------------------| 
||-Rhy Fig 9A 
| 
|   PM|                  PM| 
|       |-3-|    |-3-|       |-3-|    |-3-| 
|   E E E E E Q  E E E   E E E E E Q  E E E 
||---------------------|--------------------| 
||o--------------------|--------------------| 
||------------5--------|--------------------| 
||------7p5---5--7p5---|-----7p5---5--7p5---| 
||o-0-0-----7--------7-|-0-0-----7--------7-| 
||---------------------|--------------------| 
 |-Rhy Fig 9 

  PM| 
      |-3-|    |-3-|      |--3--| 
  E E E E E Q  E E E   Q  E E   E E Q.    4x 
|--------------------|--------------------|| 
|-----------5--------|-------------------o|| 
|-----------5--------|--------------------|| 
|-----7p5------7p5---|-5--7p5-----5-------|| 
|-0-0-----7--------7-|----------7-3-5----o|| 
|--------------------|--------------3-----|| 
|                          end Rhy Fig 9A-| 
| 
| PM| 
|     |-3-|    |-3-| 
| E E E E E Q  E E E   Q  E   E   E Q.    4x 
|--------------------|--------------------|| 
|--------------------|-------------------o|| 
|-----------5--------|------------5-0-----|| 
|-----7p5---5--7p5---|-5----------5-0-----|| 
|-0-0-----7--------7-|----7---5----------o|| 
|--------------------|--------------------|| 
                            end Rhy Fig 9-| 

  D5V                 B5(type C5 
  Gtr II 
                      |-3-| 
  W          +H       Q Q Q   W 
  |           |       | | |   | 
  /           /       / / /   / 

  Gtr I 
                      PM--| 
                      |-3-| 
  W          +Q   Q   Q Q Q   W 
|----------|----------------|------| 
|----------|----------------|------| 
|-7--------|-(7)------------|-5----| 
|-7--------|-(7)------4-4-4-|-5----| 
|-5--------|-(5)------2-2-2-|-3----| 
|----------|------x\--------|------| 


           D5V     A 
  +H     E Q.      Q   Q     H         W 
   |     | |       | 
   /     x /       o 

                   PM|          PM|      PM|       ~~~ 
                       |-3-| 
  +H     E Q.      E E E E E Q  E E    E E E  E E  Q. 
|---------------||------------------|--------------------| 
|---------------||------------------|--------------------| 
|-(5)----x-7\---||-----------5------|-10-----12---12-----| 
|-(5)----x-7\---||-----7p5---5------|-10-----12---12-----| 
|-(3)----x-5\---||-0-0-----7----0-0-|----0-0----0--------| 
|---------------||------------------|--------------------| 


                                   C5G5 
  W                      Q     Q   E Q.      W 
                         |     |   | | 
                         x     x   / /     |-w/Rhy Fig 8A 
  Gtr I 
  PM|                                        PM| 
      |-3-|    |-3-|                             |-3-|    |-3-| 
  E E E E E Q  E E E     H         E Q.      E E E E E Q  E E E 
|--------------------|---------------------|----------------------| 
|--------------------|---------------------|----------------------| 
|-----------5--------|-------------5-0-----|-----------5----------| 
|-----7p5---5--7p5---|-------------5-0-----|-----7p5---5--7p5-----| 
|-0-0-----7--------0-|-(10)\---------------|-0-0-----7--------0---| 
|--------------------|-(10)\---------------|----------------------| 


                   PM| 
                       |-3-|    |-3-| 
  Q  E E E Q   E   E E E E E Q  E E E   Q  E   E   E Q. 
|----------------|--------------------|-------------------|| 
|----------------|--------------------|-------------------|| 
|-7--7-5-7-5-----|-----------5--------|-5----------5------|| 
|-7--7-5-7-5---6-|-7---7p5---5--7p5---|-5----------5-5----|| 
|----------------|-0-0-----7--------7-|----7---5-----5----|| 
|----------------|--------------------|--------------3----|| 


   verse 2 
   Rhy Fig 9 + 9A x4(both) 



  D5V                 B5(type C5 
  Gtr II 
                      |-3-| 
  W          +H       Q Q Q   W          W               W 
  |           |       | | |   | 
  /           /       / / /   / 

  Gtr I                                Gtrs I, II 
                      PM--|              PM------------------------| 
                      |-3-|              |-3-| |-3-|     |-3-| |-3-| 
  W          +Q   Q   Q Q Q   W          Q Q Q Q Q Q     Q Q Q Q Q Q 
|----------|----------------|----------|---------------|----------------| 
|----------|----------------|----------|---------------|----------------| 
|-7--------|-(7)------------|-5--------|---------------|----------------| 
|-7--------|-(7)------4-4-4-|-5--------|-7-5-4-5-4-----|-4--------------| 
|-5--------|-(5)------2-2-2-|-3--------|-5-3-2-3-2-0---|-2-0---0-5-4----| 
|----------|------x\--------|----------|---------------|-----3---3-2----| 


            2/4      4/4 
  Gtr III 
  W           W        W                   W              H       H 
|----------|--------|-------------------|--------------|---------------|| 
|----------|--------|-------------------|--------------|---------------|| 
|----------|--------|-------------------|--------------|--------/14----|| 
|----------|--------|-------------------|--------------|---------------|| 
|----------|--------|-------------------|--------------|---------------|| 
|----------|--------|-------------------|--------------|---------------|| 
| 
| Gtr II 
| TP          TP       TP                  TP 
| W          +H       +W                  +Q   H.        +W 
|----------|--------|-------------------|--------------|---------------|| 
|-2--------|-(2)----|-------------------|--------------|---------------|| 
|-2--------|-(2)----|-(2)---------------|-(2)--2-------|-(2)-----------|| 
|-2--------|-(2)----|-(2)---------------|-(2)--2-------|-(2)-----------|| 
|-0--------|-(0)----|-(0)---------------|-(0)--0-------|-(0)-----------|| 
|----------|--------|-------------------|--------------|---------------|| 
| 
| Gtr I 
| TP          TP 
| W          +H        E  E E E E E E E    W             +W 
|----------|--------|-------------------|--------------|---------------|| 
|-2--------|-(2)----|--2--2---2-2---2---|--------------|---------------|| 
|-2--------|-(2)----|--2--2---2-2---2---|--2-----------|-(2)-----------|| 
|-2--------|-(2)----|--2--2---2-2---2---|--2-----------|-(2)-----------|| 
|-0--------|-(0)----|--0--0---0-0---0---|--0-----------|-(0)-----------|| 
|----------|--------|-------------------|--------------|---------------|| 


 Into The Coven 
  Straight Eigths feel Q=114 
  Gtr III 
    ~~~~                         ~~~~~~~~~~~~ 
   +H.            E  E    E      Q.      +Q.      E 
|----------------------|----------------------------| 
|----------------------|-13----------------------13-| 
|-(14)-----------12h14-|--------14------(14)--------| 
|----------------------|----------------------------| 
|----------------------|----------------------------| 
|----------------------|----------------------------| 
| 
| Gtr I 
|      PM|   PM|                    PM    PM-| ~ 
|   E  E E E E E  E  E    E      E  E E   E  E Q 
|----------------------|----------------------------| 
|----------------------|----------------------------| 
|----------------------|--5b5.5----------------5----| 
|---7------7------5--7-|---------7----7--------5----| 
|---0--0-0-0-0-0--0--0-|---------0--0-0---0--0------| 
|----------------------|----------------------------| 


             ~~~~~~~~~~~~~~~~ 
   H        +H           +W 
|---------------------|--------------------| 
|-12-------(12)-------|-(12)---------------| 
|---------------------|--------------------| 
|---------------------|--------------------| 
|---------------------|--------------------| 
|---------------------|--------------------| 
| 
|    PM|     PM-|   PM       PM| 
|  E E E E   E  E E E     E  E E E +Q   Q 
|---------------------|--------------------| 
|---------------------|--------------------| 
|--4-----4--------4---|---5------5-(5)--7--| 
|--5-----5--------5---|---3------5-(5)--7--| 
|----0-0-----0--0---0-|------0-0-3-(3)--5--| 
|---------------------|--------------------| 


                  ~~~~~~~~~~~~~~~ 
   H.            +Q       +H             H 
|----------------------|------------------------| 
|-13------------(13)---|-(13)----------/17------| 
|----------------------|------------------------| 
|----------------------|------------------------| 
|----------------------|------------------------| 
|----------------------|------------------------| 
| 
| Gtrs I, II 
|     PM|   PM|                    PM    PM| ~ 
|  E  E E E E E   E  E     E     E E E   E E Q 
|----------------------|------------------------| 
|----------------------|------------------------| 
|----------------------|---5b5.5-------------5--| 
|--7------7-------5--7-|---------7---7-------5--| 
|--0--0-0-0-0-0---0--0-|---------0-0-0---0-0----| 
|----------------------|------------------------| 


                                     ~~~ 
   W                      +H         Q.     +E 
|----------------------|-------------------------| 
|-15tr17---------------|-(15)-------15-----(15)\-| 
|----------------------|-------------------------| 
|----------------------|-------------------------| 
|----------------------|-------------------------| 
|----------------------|-------------------------| 
| 
|        PM|   PM|            PM| 
|  E     E E E E E E E     E  E E E +Q   Q 
|----------------------|-------------------------| 
|----------------------|-------------------------| 
|--4---------4-----4s3-|---5------5-(5)--7-------| 
|--5---------5-----5s4-|---3------5-(5)--7-------| 
|--------0-0---0-0---0-|------0-0-3-(3)--5-------| 
|----------------------|-------------------------| 


 Half Time Feel 
  Gtrs I, II 
    PM|   PM|               PM  PM| ~      PM|   PM|   PM    PM| 
  E E E E E E E E   E     E E E E E Q    E E E E E E E E   E E E E +Q   Q 
|-----------------|--------------------|-----------------|-----------------| 
|-----------------|--------------------|-----------------|-----------------| 
|-----------------|-5b5.5-----------5--|-4-----4-----4---|-5-----5-(5)--7--| 
|-7-----7-----5-7-|-------7---7-----5--|-5-----5-----5---|-3-----5-(5)--7--| 
|-0-0-0-0-0-0-0-0-|-------0-0-0-0-0----|---0-0---0-0---0-|---0-0-3-(3)--5--| 
|-----------------|--------------------|-----------------|-----------------| 
|-Rhy Fig 10 

    PM|   PM|               PM  PM| ~      PM|   PM|         PM| 
  E E E E E E E E   E     E E E E E Q    E E E E E E E E   E E E E +Q   Q 
|-----------------|--------------------|-----------------|-----------------| 
|-----------------|--------------------|-----------------|-----------------| 
|-----------------|-5b5.5-----------5--|-4-----4-----4s3-|-5-----5-(5)--7--| 
|-7-----7-----5-7-|-------7---7-----5--|-5-----5-----5s4-|-3-----5-(5)--7--| 
|-0-0-0-0-0-0-0-0-|-------0-0-0-0-0----|---0-0---0-0---0-|---0-0-3-(3)--5--| 
|-----------------|--------------------|-----------------|-----------------| 
                                                             end Rhy Fig 10-| 

   E E E E +E  E E E   Q.   E E Q.      E E E E +E  E E E   Q  Q  Q   Q 
|--------------------|---------------|--------------------|---------------|| 
|--------------------|---------------|--------------------|---------------|| 
|-10-7---7-(7)-5-7-5-|-7----8---8----|-10-7---7-(7)-5-7-5-|-7--8--9--10\--|| 
|-10-7---7-(7)-5-7-5-|-7----8---8----|-10-7---7-(7)-5-7-5-|-7--8--9--10\--|| 
|--8-5---5-(5)-3-5-3-|-5----6---6----|--8-5---5-(5)-3-5-3-|-5--6--7---8\--|| 
|--------------------|---------------|--------------------|---------------|| 


 Verses 1 + 2 
  $ 
w/Rhy Fig 10 (1st 4 bars) 
  Gtr III 
  PM--| 
  S S E Q   H         W                    W                 W 
|-------------------|--------------------|-----------------|------------------| 
|-------------------|--------------------|-----------------|------------------| 
|-------------------|--------------------|-----------------|------------------| 
|-7p5---------------|--------------------|-----------------|------------------| 
|-----7-------------|--------------------|-----------------|------------------| 
|-------------------|--------------------|-----------------|------------------| 


Rhy Fig 10 (last 4 bars) 


 Chorus 
      PM--------------------|            PM--------| 
  E E E E E E E E   E E E E E Q.     E E E E E E E E 
|-----------------|----------------|-----------------| 
|-----------------|----------------|-----------------| 
|-----------------|----------------|-----------------| 
|-----------------|----------------|-----------------| 
|-5-4-4-4-4-4-4-4-|-4-4-4-4-4-5----|-5s4-4-4-4-4-4-4-| 
|-3-2-2-2-2-2-2-2-|-2-2-2-2-2-3----|-3s2-2-2-2-2-2-2-| 


                       PM--------------------| 
  E E E E E Q.     E E E E E E E E   E E E E E Q. 
|----------------|-----------------|----------------| 
|----------------|-----------------|----------------| 
|----------------|-----------------|----------------| 
|----------------|-----------------|----------------| 
|-----0-2-3-2----|-5-4-4-4-4-4-4-4-|-4-4-4-4-4-5----| 
|-2-3-------0----|-3-2-2-2-2-2-2-2-|-2-2-2-2-2-3----| 


                                   Guitar Solo 
           To Coda 
                                 Gtr III 
                                                 ~~~ 
  W                 W                Q.     +E  +Q    E E 
|-----------------|--------------||-----------------------| 
|-----------------|--------------||-----------------------| 
|-----------------|--------------||-----------------------| 
|-----------------|--------------||-/7------(7)-(7)---5h7-| 
|-----------------|--------------||-----------------------| 
|-----------------|--------------||-----------------------| 
| 
| Gtrs I, II 
|     PM------------|    PM 
| E E E E E E E E   E Q  E Q  Q 
|-----------------|--------------|| 
|-----------------|--------------|| 
|-----------------|---2----2-----||-w/Rhy Fig 10 
|-----------------|---2----2--2--|| 
|-5s4-4-4-4-4-4-4-|-4-0----0--2--|| 
|-3s2-2-2-2-2-2-2-|-2----0----0--|| 


        ~~~~~~~~~~~ 
                             |------3------| |----3----| 
  E     Q.     +Q.     S S   E E   E E E   E Q    Q    Q 
|--------------------------|-------------------------------| 
|--------------------------|-------------------------------| 
|-5b5.5----------------5-4-|-5-x---7-x-5---x-4-------------| 
|-------7------(7)---------|---------------------7---5---| 
|--------------------------|-------------------------------| 
|--------------------------|-------------------------------| 


  |---3---|    |--3---| 
  Q   Q   Q    Q  Q   Q   E   +E  E E E E a E E 
|-----------------------|-------------------------| 
|-----------------------|-------------------------| 
|-----------------------|---------------------5---| 
|-3---2-----------------|-------------------------| 
|---------5----3--5---5-|-5b6r(5)-3---3-5-5s7-----| 
|-----------------------|-----------5-------------| 


  ~~~~~ 
  Q       E E a    +E  +E  E E 
|------------------------------| 
|---------5-7-7b8==(7)r(7)-----| 
|---------5-7-7b9==(7)r(7)-5---| 
|-7--------------------------7-| 
|------------------------------| 
|------------------------------| 


                                               D.S. al Coda 
                                                   ~~~ 
                |--3--| |--3--| 
  E Q      +E   E E   E E E   E   E  E  E   +S  S  Q   E E 
|---------------5---------------|---------------------------|| 
|-----------------8---5---------|----------------------5-5--|| 
|-5-7b9====(7)r---------7-5-----|-5-7-7b9r(7)p5------5-5--|| 
|-----------------------------7-|------------------7--------|| 
|-------------------------------|---------------------------|| 
|-------------------------------|---------------------------|| 


  & 
  Gtrs I, II 
  PM   PM 
  E Q  E Q  Q    S E S E E +E  E +S  E.   S E S E E Q  Q 
|--------------|------------------------|-----------------|| 
|--------------|------------------------|-----------------|| 
|---2----2-----|-5---5---5-(5)-5-(5)-5--|-5---5---5-------|| 
|---2----2--2--|-5---5---5-(5)-5-(5)-5--|-5---5---5-5--4--|| 
|-4-0----0--2--|-3---3---3-(3)-3-(3)-3--|-3---3---3-5--4--|| 
|-2----0----0--|------------------------|-----------3--2--|| 


 Evil 
  Gtr II 
  E E   Q     H             H           E E E E   +Q      +Q       H 
|-------------------------|---------------------|------------------------------| 
|-------------------------|---------------------|------------------------------| 
|-------------------------|---------------------|------------------------------| 
|-2-----------------------|-------------4-5-4-5-|-(5)--------------------------| 
|-2-----------------------|-------------5-7-5-7-|-(7)-----(7)\-----------------| 
|-0-----------------------|---------------------|------------------------------| 
| 
| Gtr I 
|                                       PM--| 
| E S S S  E. E S S S  E.   E S S S  E. E E E E   +E  S S  S    E. E S S S  E. 
|-------------------------|---------------------|------------------------------| 
|-------------------------|---------------------|------------------------------| 
|-------------------------|---------------------|------------------------------| 
|-9-x-x-9s12--9-x-x-9s12--|-9-x-x-9s12--7-9-7-9-|-(9)-x-x--9s==12--9-x-x-9s12--| 
|-7-x-x-7s10--7-x-x-7s10--|-7-x-x-7s10--5-7-5-7-|-(7)-x-x--7s==10--7-x-x-7s10--| 
|-------------------------|---------------------|------------------------------| 
                                                |-Rhy Fig 11 

                                                                PM--| ~ 
  H           E E E E   +E  S S S  E. E S S S  E.   E S S S  E. E E E E 
|---------------------|---------------------------|---------------------| 
|---------------------|---------------------------|---------------------| 
|---------------------|---------------------------|---------------------| 
|-------------4-5-----|---------9s12--9-x-x-9s12--|-9-x-x-9s12--7-9-7-9-| 
|-------------5-7-9-7-|-(7)-----7s10--7-x-x-7s10--|-7-x-x-7s10--5-7-5-7-| 
|---------------------|-----0-0-------------------|---------------------| 
| 
|             PM--|                                             PM--| 
| E S S S  E. E E E E   +E  S S S  E. E S S S  E.   E S S S  E. E E E E 
|---------------------|---------------------------|---------------------| 
|---------------------|---------------------------|---------------------| 
|---------------------|---------------------------|---------------------| 
|-9-x-x-9s12--7-9-7-9-|-(9)-x-x-9s12--9-x-x-9s12--|-9-x-x-9s12--7-9-7-9-| 
|-7-x-x-7s10--5-7-5-7-|-(7)-x-x-7s10--7-x-x-7s10--|-7-x-x-7s10--5-7-5-7-| 
|---------------------|---------------------------|---------------------| 
       end Rhy Fig 11-| 

  Gtrs I, II 
   ~~~                                    PM--| 
  +E  S S S  E. E S S S  E.   E S S S  E. E E E E 
|---------------------------|---------------------|| 
|---------------------------|---------------------|| 
|---------------------------|---------------------|| 
|-(9)-x-x-9s12--9-x-x-9s12--|-9-x-x-9s12--7-9-7-4-|| 
|-(7)-x-x-7s10--7-x-x-7s10--|-7-x-x-7s10--5-7-5-2-|| 
|---------------------------|---------------------|| 


 verse 1 
      PM--------------------------|           PM--------| 
  +E  E E E E E E E   E E E E E E E E   +E  E E E E E E E 
|-------------------|-----------------|-------------------| 
|-------------------|-----------------|-------------------| 
|-------------------|-----------------|-------------------| 
|-(4)---------------|---------------7-|-(7)-4-------------| 
|-(2)-2-2-2-2-2-2-2-|-2-2-2-2-2-0-2-5-|-(5)-2-2-2-2-2-2-2-| 
|-------------------|-----------------|-------------------| 


  PM----------|           PM------------------------| 
  E E E E E E E E   +E  E E E E E E E   E E E E E E E E 
|-----------------|-------------------|-----------------| 
|-----------------|-------------------|-----------------| 
|-----------------|-------------------|-----------------| 
|---------------7-|-(7)---------------|---------------7-| 
|-2-2-2-2-2-0-2-5-|-(5)-5-------------|-----------0-2-5-| 
|-----------------|-----3-3-3-3-3-3-3-|-3-3-3-3-3-------| 


        PM------------------------|           PM--------| 
  +E  E E E E E E E   E E E E E E E E   +E  E E E E E E E 
|-------------------|-----------------|-------------------| 
|-------------------|-----------------|-------------------| 
|-------------------|-----------------|-------------------| 
|-(7)-4-------------|---------------7-|-(7)-4-------------| 
|-(5)-2-2-2-2-2-2-2-|-2-2-2-2-2-0-2-5-|-(5)-2-2-2-2-2-2-2-| 
|-------------------|-----------------|-------------------| 


  PM----------|           PM------------------------| 
  E E E E E E E E   +E  E E E E E E E   E E E E E E E E 
|-----------------|-------------------|-----------------| 
|-----------------|-------------------|-----------------| 
|-----------------|-------------------|-----------------| 
|---------------7-|-(7)-4-------------|---------------7-| 
|-2-2-2-2-2-0-2-5-|-(5)-2-2-2-2-2-2-2-|-2-2-2-2-2-0-2-5-| 
|-----------------|-------------------|-----------------| 


        PM------------------------|           PM| 
  +E  E E E E E E E   E E E E E E E E   +E  E E E E E E E 
|-------------------|-----------------|-------------------| 
|-------------------|-----------------|-------------------| 
|-------------------|-----------------|-------------------| 
|-(7)---------------|---------------7-|-(7)-4-----4-2-----| 
|-(5)-5-------------|-----------0-2-5-|-(5)-2-2-2-2-0---5-| 
|-----3-3-3-3-3-3-3-|-3-3-3-3-3-------|-----------------3-| 


  Gtr III 
   H        Q   E  E 
|------------------------|| 
|------------------------|| 
|-----------------14b16==|| 
|------------------------|| 
|------------------------|| 
|------------------------|| 
| 
| Gtrs I, II 
| +E  E E E E E E  E 
|------------------------|| 
|------------------------|| 
|------------------------|| 
|------------------9-----|| 
|-(5)-------5-4----7-----|| 
|-(3)-3-3-3-3-2-0--------|| 


 Guitar Solo 
w/Rhy Fig 11 x2 
            |---3---|            |--3--|        |---3---| 
   +S    S  S  S    S     E      S  S  S     E  S  S    S     S  S  S  S 
|---------------------------------------------------------------------------| 
|-------12-15p12---------12-----15p12-------12-15p12---------12-15p12-------| 
|-(14)r------------14b16--------------14b16------------14b16----------14b16-| 
|---------------------------------------------------------------------------| 
|---------------------------------------------------------------------------| 
|---------------------------------------------------------------------------| 


   |--3--| 
   S  S  S  S   S   S     +E   S  +S   S  S  S  S  S  S  S 
|----------------------------------------------------------| 
|-12h15p12--------------------12-(12)----12-15-15p12-15p12-| 
|----------15-13-13b15r(13)---------13-------------------| 
|----------------------------------------------------------| 
|----------------------------------------------------------| 
|----------------------------------------------------------| 


   |--------3--------|        |--3--| 
   S   S  S  S  S    S  S  S  S  S  S  S  S  E       S  S   E 
|----------------------------------------------------------15b18==| 
|-15p=12-12-15p12------12-15p12----12-15p12-15b17---15p12---------| 
|-------------------15----------15--------------------------------| 
|-----------------------------------------------------------------| 
|-----------------------------------------------------------------| 
|-----------------------------------------------------------------| 


   +Q.            +E    Q       +E   E 
|-(15)-----------(15)r-15b18r==(15)-12-| 
|----------------------15b18r==(15)----| 
|--------------------------------------| 
|--------------------------------------| 
|--------------------------------------| 
|--------------------------------------| 

w/Rhy Fig 11 x1.5 
                |--------6---------|  |-------6--------| 
   S   S  S  S  S  S      S  S  S  S  S  S  S  S  S    S  S  S  S  S 
|-15p=12-------12h15p====12----------11h14p11------------------------| 
|--------13-13--------------12-11h12----------12-11h==12--------9h12-| 
|-----------------------------------------------------------10-------| 
|--------------------------------------------------------12----------| 
|--------------------------------------------------------------------| 
|--------------------------------------------------------------------| 
| 
| 
| +E      S  S  S     E.              E        S    S     S  E. 
|--------------------------------------------------------------------| 
|--------------------------------------------------------------------| 
|--------------------------------------------------------------------| 
|-(9)-----x--x--9s===12---------------9--------x----x-----9s12-------| 
|-(7)-----x--x--7s===10---------------7--------x----x-----7s10-------| 
|---------x--x--7s===10---------------7--------x----x-----7s10-------| 
|-Rhy Fig 11A 

  S  S S S +S  T T  S S  S S S S S S S S 
|-9h12-0-0-(0)10p8h10---10p7-9---9p6-8---| 
|---------------------8--------6-------5-| 
|----------------------------------------| 
|----------------------------------------| 
|----------------------------------------| 
|----------------------------------------| 
| 
| 
|                        PM------| 
| E    S S  S  E.        E   E   E   E 
|----------------------------------------| 
|----------------------------------------| 
|----------------------------------------| 
|-9----x-x--9s12---------7---9---7---9---| 
|-7----x-x--7s10---------5---7---5---7---| 
|-7----x-x--7s10---------5---7---5---7---| 


   E.     S  +S  S   E  S S S S E     E 
|--7-------------------------------------| 
|-------/12-(12)12--------------------5s=| 
|-------------------13\---6-6-6----------| 
|-------------------------------7--------| 
|----------------------------------------| 
|----------------------------------------| 
| 
| 
| +E  S   S   S  E.     E   S S S  E. 
|----------------------------------------| 
|----------------------------------------| 
|----------------------------------------| 
|-(9)-x---x---9s12------9---x-x-9s12-----| 
|-(7)-x---x---7s10------7---x-x-7s10-----| 
|-(7)-x---x---7s10------7---x-x-7s10-----| 


   Q       Q         +E   E  S +S  S S 
|--------------------------------------|| 
|-21\--------------------------------5-|| 
|---------2b4======(2)-2-2r(2)p0---|| 
|--------------------------------------|| 
|--------------------------------------|| 
|--------------------------------------|| 
| 
|                     PM-----| 
|  E  S S  S      E.  E   E  E     E 
|--------------------------------------|| 
|--------------------------------------|| 
|--------------------------------------|| 
|--9--x-x--9s====12---7---9--7-----4---|| 
|--7--x-x--7s====10---5---7--5-----4---|| 
|----------------------------------2---|| 
|-Rhy Fill 3            end Rhy Fill 3-| 
| 
|                     PM-----| 
|  E  S S  S      E.  E   E  E     E 
|--------------------------------------|| 
|--------------------------------------|| 
|--------------------------------------|| 
|--9--x-x--9s====12---7---9--7-----4---|| 
|--7--x-x--7s====10---5---7--5-----4---|| 
|--7--x-x--7-----10---5---7--5-----2---|| 
                       end Rhy Fig 11A-| 

 Pre-Chorus 
  +Q    +Q       H             W 
|----------------------------|----------------------| 
|-(5)---(5)\-----------------|----------------------| 
|----------------------------|----------------------| 
|----------------------------|----------------------| 
|----------------------------|----------------------| 
|----------------------------|----------------------| 
| 
|        PM------------------------------| 
| +E  E  E   S S E S S E S S   E S S E S S E E E E 
|----------------------------|----------------------| 
|----------------------------|----------------------| 
|----------------------------|---------------7---5--| 
|-(4)-4----------------------|---------------7---5--| 
|-(4)-4--4---4-4-4-4-4-4-4-4-|-4-4-4-4-4-4-4-5---3--| 
|-(2)-2--2---2-2-2-2-2-2-2-2-|-2-2-2-2-2-2-2--------| 
|-Rhy Fig 12 


  Gtrs I, II 
    PM----------------------------------|           PM------------------| 
  E S S E S S E S S E S S   E S S E S S E E E E   E S S E S S E S S E S S 
|-------------------------|---------------------|-------------------------| 
|-------------------------|---------------------|-------------------------| 
|-5-----------------------|---------------4---2-|-2-----------------------| 
|-5-5-5-5-5-5-5-5-5-5-5-5-|-5-5-5-5-5-5-5-4---2-|-2-2-2-2-2-2-2-2-2-2-2-2-| 
|-3-3-3-3-3-3-3-3-3-3-3-3-|-3-3-3-3-3-3-3-2---0-|-0-0-0-0-0-0-0-0-0-0-0-0-| 
|-------------------------|---------------------|-------------------------| 


  PM----------|             PM--------------------------------------| 
  E S S E S S E E E E   +E  S S E S S E S S E S S   E S S E S S E E E E 
|---------------------|---------------------------|----------------------|| 
|---------------------|---------------------------|----------------------|| 
|---------------4-5-6-|-(6)-----------------------|----------------------|| 
|-2-2-2-2-2-2-2-4-5-6-|-(6)-6-6-6-6-6-6-6-6-6-6-6-|-6-6-6-6-6-6-6-7-8-9--|| 
|-0-0-0-0-0-0-0-2-3-4-|-(4)-4-4-4-4-4-4-4-4-4-4-4-|-4-4-4-4-4-4-4-5-6-7--|| 
|---------------------|---------------------------|----------------------|| 
                                                          end Rhy Fig 12-| 

 Chorus 
 Rhy Fig 11 

 Rhy Fig 11 + 11A -> Rhy Fill 3 



 Pre-Chorus 
  Rhy Fig 12 


                         Chorus - Guitar Solo 
  Gtr III                |-w/Rhy Fig 11 x2 
                   TP      TP       TP                 TP 
  H           Q    Q       Q       +H                 +Q 
|----------------------||--------------------------------------| 
|----------------------||--------------------------------------| 
|-----------------14---||-14------(14)b16============(14)r-----| 
|----------------------||--------------------------------------| 
|----------------------||--------------------------------------| 
|----------------------||--------------------------------------| 



   E     +S   S  E      E  E  E      +S   S  S  S 
|--------------------------------------------------| 
|--------------------------------------------------| 
|-14b17r(14)p12--------12-14-14pb16r(14)-12-12-12--| 
|---------------14---------------------------------| 
|--------------------------------------------------| 
|--------------------------------------------------| 


   ~~~ 
                             |-------5-------|  |--------6---------| 
   E   +E       E      S  S  S  S  S    S    S  S  S      S  S  S  S 
|--------------------------------------------------------------------| 
|--------------------------------------------------------------------| 
|-------------/12-----14p12-12-14p12---12---12-14p12--------12h14p12-| 
|-14--(14)\----------------------------------------------14----------| 
|--------------------------------------------------------------------| 
|--------------------------------------------------------------------| 


                                ~~~~~ 
   |-------5-------| 
   S  S  S    S    S  S  S   E  Q        E  E 
|------------------------------------------12----| 
|------------------------------15b17---/14-------| 
|-12-12-14p==12------12h14--12-------------------| 
|-----------------14-----------------------------| 
|------------------------------------------------| 
|------------------------------------------------| 


w/Rhy Fig 11 x1.5 + Rhy Fig 11A (1st 3 bars only) 
                       |-3--|  |-------3-------|  |-------3--------| 
   S   S  S  S  S  S   S  S S  S  S  S S  S    S  S  S      S  S S S 
|-16p=12-12-15p12p=0--15p12p0-15p14p12p0-15p==14p12-15p====14p12p0-0-| 
|--------------------------------------------------------------------| 
|--------------------------------------------------------------------| 
|--------------------------------------------------------------------| 
|--------------------------------------------------------------------| 
|--------------------------------------------------------------------| 


   |-------3-------|  |-------3--------|                   |--3--| 
   S  S  S S  S    S  S S      S  S  S S  T  T  T T  S  S  S  S  S  E 
|-15p14p12p0-15p==14p12p0-----15p14p12p0-15p14p12p0-15p12-15p14p12-15b18====| 
|---------------------------------------------------------------------------| 
|---------------------------------------------------------------------------| 
|---------------------------------------------------------------------------| 
|---------------------------------------------------------------------------| 
|---------------------------------------------------------------------------| 


                                |---3---|  |----3----| 
   +Q       +E      S  S  S  S  S  S    S  E      E  E 
|-(15)r====(15)----15p14-12----12h14p==12-12-----12-14-| 
|---------------------------15-------------------------| 
|------------------------------------------------------| 
|------------------------------------------------------| 
|------------------------------------------------------| 
|------------------------------------------------------| 


                                         ~~~~~~~~~ 
   E  S  S  E      S  S  S  S  S  S  E   E    +E   S  S  S  E.  S  S  S  S  S  E. 
|-15-14-12--------12-12-15p12--------------|---------------------------------------|| 
|----------15-----------------15p12-12-----|------------12h13--------------12h13---|| 
|--------------------------------------/14-|-(14)-14-14--------14-14-14-14---------|| 
|------------------------------------------|---------------------------------------|| 
|------------------------------------------|---------------------------------------|| 
|------------------------------------------|---------------------------------------|| 
| 
|                        PM---------| 
|  E  S  S  S  E.        E     E     E   E    +E   S  S  S  E.  E     S  S  S  E. 
|------------------------------------------|---------------------------------------|| 
|------------------------------------------|---------------------------------------|| 
|------------------------------------------|---------------------------------------|| 
|--9--x--x--9s12---------7-----9-----7-----|---------------------------------------|| 
|--7--x--x--7s10---------5-----7-----5---7-|--(7)--x--x--7s10---7-----x--x--7s10---|| 
|----------------------------------------5-|--(5)--x--x--5s=8---5-----x--x--5s=8---|| 
| 
|                        PM---------| 
|  E  S  S  S  E.        E     E     E   E    +E   S  S  S  E.  E     S  S  S  E. 
|------------------------------------------|---------------------------------------|| 
|------------------------------------------|---------------------------------------|| 
|------------------------------------------|---------------------------------------|| 
|--9--x--x--9s12---------7-----9-----7-----|---------------------------------------|| 
|--7--x--x--7s10---------5-----7-----5---7-|--(7)--x--x--7s10---7-----x--x--7s10---|| 
|--7--x--x--7s10---------5-----7-----5---5-|--(5)--x--x--5s=8---5-----x--x--5s=8---|| 


                                  ~~~ 
   S  S  S  S  S  E.  E  E  S  S  E 
|-----------------------------------| 
|-------------12h13--12-13-13p12----| 
|-14-14-14-14--------------------14-| 
|-----------------------------------| 
|-----------------------------------| 
|-----------------------------------| 
| 
|                     PM---| 
|  E     S  S  S  E.  E  E  E     E 
|-----------------------------------| 
|-----------------------------------| 
|-----------------------------------| 
|-----------------------------------| 
|--7-----x--x--7s10---5--7--5-----7-| 
|--5-----x--x--5s=8---3--5--3-----5-| 


 ~~~~~~                                                            ~~ 
   +E   S  S  S  E.  E  S  S  S  E.    E  S  S  S  E.  E  E  S  S  E 
|-----------------------------------|--------------------------------|| 
|------------12h13-----------12h13--|----------12h13--12-13-13p12----|| 
|-(14)-14-14--------14-14-14--------|-14-14-14--------------------14-|| 
|-----------------------------------|--------------------------------|| 
|-----------------------------------|--------------------------------|| 
|-----------------------------------|--------------------------------|| 
| 
|                                                      PM---| 
|  +E   S  S  S  E.  E  S  S  S  E.    E  S  S  S  E.  E  E  E     E 
|-----------------------------------|--------------------------------|| 
|-----------------------------------|--------------------------------|| 
|-----------------------------------|--------------------------------|| 
|-----------------------------------|------------------------------7-|| 
|--(7)--x--x--7s10---7--x--x--7s10--|--7--x--x--7s10---5--7--5-----7-|| 
|--(5)--x--x--5s=8---5--x--x--5s=8--|--5--x--x--5s=8---3--5--3-----5-|| 


 Bridge 
       A5G5    A5V D5V C5     G5  E F5 C5   A5V G5A5V D5V C5     G5      F5  A5V 
  Gtrs I, II 
    E  E   E   E E E E E   +E E E E Q  Q    E E E E E E E E   +E E E E E E E E 
    |  |   |   |   |   |    | | | | |  |    | | | |   |   |    | | |     | | | 
    /  /   /   /   /   /    / / / o /  /    / / / /   /   /    / / /     / / / 

    ~~~~ 
   +Q     +Q     H          W               W                  W 
|------------------------|----------------|-----------------|------------------| 
|------------------------|----------------|-----------------|------------------| 
|-(14)---(14)\-----------|----------------|-----------------|------------------| 
|------------------------|----------------|-----------------|------------------| 
|------------------------|----------------|-----------------|------------------| 
|------------------------|----------------|-----------------|------------------| 


       G5A5V D5V C5     G5  E F5 C5   A5V G5A5V D5V C5     G5  E F5 G5 
  +E E E E E E E E   +E E E E Q  Q    E E E E E E E E   +E E E E Q  Q 
   | | | |   |   |    | | | | |  |    | | | |   |   |    | | | | |  | 
   / / / /   /   /    / / / o /  /    / / / /   /   /    / / / o /  / 
|------------------|----------------|-----------------|----------------| 


  A5V G5A5V D5V C5     G5  E F5 C5   A5V G5A5V D5V C5     G5      F5  A5V 
  E E E E E E E E   +E E E E Q  Q    E E E E E E E E   +E E E E E E E E 
  | | | |   |   |    | | | | |  |    | | | |   |   |    | | |     | | | 
  / / / /   /   /    / / / o /  /    / / / /   /   /    / / /     / / / 
|-----------------|----------------|-----------------|------------------| 


       G5A5V D5V C5     G5  E F5 C5   A5V G5A5V D5V C5     G5  E F5 G5 
  +E E E E E E E E   +E E E E Q  Q    E E E E E E E E   +E E E E Q  Q 
   | | | |   |   |    | | | | |  |    | | | |   |   |    | | | | |  | 
   / / / /   /   /    / / / o /  /    / / / /   /   /    / / / o /  / 
|------------------|----------------|-----------------|----------------|| 


    Gtr II 
    E E Q  E E E E   E E Q  E E E  S   S 
||-----------------|----------------------| 
||o----------------|----------------------| 
||-------------5---|----------------------| 
||--3-3------5-5-5-|-7-7----x-x-7-5-5-| 
||o-3-3------5-3-5-|-7-7----x-x-7---------| 
||--1-1------3---3-|-5-5----x-x-5---------| 
||-Rhy Fig 13A 
| 
|   Gtr I 
|            PM  PM 
|   E E Q  E E E E   E E Q  E E E  S   S 
||-----------------|----------------------| 
||o----------------|----------------------| 
||-------------5---|----------------------| 
||--3-3--------5---|-7-7----x-x-7--7---7--| 
||o-3-3------5-3-5-|-7-7----x-x-7--7---7--| 
||--1-1------3---3-|-5-5----x-x-5--5---5--| 
 |-Rhy Fig 13 

  E E S S S S S S S S S S  E    +H        +E  E Q 
|----------------------------|------------------------|| 
|----------------------------|-----------------------o|| 
|-7-7-x-x-x-x-9-9-9-9-9-9-10-|-(10)------(10)-7-5-----|| 
|----------------------------|----------------7-5-----|| 
|-5-5-x-x-x-x-7-7-7-7-7-7--8-|--(8)-------(8)-5-3----o|| 
|----------------------------|------------------------|| 
|                                     end Rhy Fig 13A-| 
| 
| E E S S S S E   E   S S  E    +Q   E E  +E  E Q 
|----------------------------|------------------------|| 
|----------------------------|-----------------------o|| 
|-7-7-x-x-x-x-5---5---5-5--3-|--(3)--3-3--(3)-7-5-----|| 
|----------------------------|----------------7-5-----|| 
|-5-5-x-x-x-x-3---3---3-3--1-|--(1)--1-1--(1)-5-3----o|| 
|----------------------------|------------------------|| 
                                       end Rhy Fig 13-| 

 Guitar Solo 
w/Rhy Fig 13 + 13A x3.75 (both) 
  Gtr III 
                                                 ~~~~~ 
   Q       Q      Q       E  E   E  E  S S  S S  Q.        E 
|------------------------------|----------------------------------| 
|------------------------------|----------------------------------| 
|-12b14---12b14--12b14---12-10-|-9-10-10p9----9------------9------| 
|------------------------------|-----------12---12b14-------------| 
|------------------------------|----------------------------------| 
|------------------------------|----------------------------------| 


     |-3--| 
   E S  S S  E   E    E    E    E    a  E 
|--------------------------------------------| 
|------------------------------10---10h11s===| 
|-10-9h10p9------9---10---12-----------------| 
|-----------12-------------------------------| 
|--------------------------------------------| 
|--------------------------------------------| 


                  ~~~~ 
                                                    |--3--| 
    E   E  E  E   Q.      +E     E   S  S  E  E  E  S  S  S  E  E 
|------------------------------|----------10----------------------| 
|--13s=11-10-------------------|-------10----10-11-10h11p10----10-| 
|------------10--10------(10)\-|---/12----------------------12----| 
|------------------------------|----------------------------------| 
|------------------------------|----------------------------------| 
|------------------------------|----------------------------------| 


   Q.        E      +E.     S      +E.       S 
|--------------------------------------------------| 
|-13b15-----13b15==(13)r---13b15==(13)r-----13b15==| 
|--------------------------------------------------| 
|--------------------------------------------------| 
|--------------------------------------------------| 
|--------------------------------------------------| 


   +Q      E    E    E    E    S  S  E 
|--------------------------------------| 
|-(13)r---13---11---10--------10----10-| 
|------------------------12------12----| 
|--------------------------------------| 
|--------------------------------------| 
|--------------------------------------| 


                       ~~~~ 
    Q      +E   S  S   Q.      +E     E  E  E  E  E  E  E  E 
|-----------------------------------|--------------------------| 
|-----------------------------------|---------13-12s13-13-12s==| 
|--12b14r=(12)-10h12--10------(10)\-|---13s14-14-13s14-14-13s==| 
|-----------------------------------|--------------------------| 
|-----------------------------------|--------------------------| 
|-----------------------------------|--------------------------| 


   E  E  E  E  E  E    E  E         E      +E    S  S  E    E        +E      S  S  S  S 
|--------------------------------|--------------10--------------------------10----10-13-| 
|-13-13-12s13-13-----/10-10------|-13b15==(13)r----13p10---13b15====(13)r------13-------| 
|-14-14-13s14-14-14\-------------|------------------------------------------------------| 
|--------------------------------|------------------------------------------------------| 
|--------------------------------|------------------------------------------------------| 
|--------------------------------|------------------------------------------------------| 


        |3-|                      |--3--| 
   +E   E  S  S  S  S  S   S   S  S  S  S  S  S  E 
|-(13)-10-12p10-10----------------------------------| 
|------------------13-11--10-----10h11p10----10-----| 
|-----------------------------12----------12----13--| 
|---------------------------------------------------| 
|---------------------------------------------------| 
|---------------------------------------------------| 


                                                               ~~~ 
   E  E  S     +S   S  S  S  S  e  E  E    E     +E   E  E  a  Q.      E 
|---------------------------------------|-------------------------------------| 
|-10-13-10b11r(10)----10----------------|-------------------------------------| 
|------------------12----12-10----10-12-|-12b14r(12)-10-12-12p10------10------| 
|------------------------------12-------|-------------------------------------| 
|---------------------------------------|-------------------------------------| 
|---------------------------------------|-------------------------------------| 


                                |--3---| 
   E  E     +E     E   E    E   S  S   S  E 
|--------------------------------------------| 
|--------------------------------------------| 
|-12-12b14r(12)---10---9---10---9h10p==9-----| 
|----------------------------------------12--| 
|--------------------------------------------| 
|--------------------------------------------| 


 3/4                     4/4 
                           ~~~ 
    E   E  E  E   Q       +H.      Q     W 
|-----------------------|-------------||------------------| 
|-----------------------|-------------||------------------| 
|---9--------10---9-----|-(9)---------||------------------| 
|------10-12------------|-------------||------------------| 
|-----------------------|-------------||------------------| 
|-----------------------|-------------||------------------| 
| 
|  +H            +E   E    W             Q  Q  E. S +E  E 
|-----------------------|-------------||------------------| 
|-----------------------|-------------||------------------| 
|-(10)----------(10)\-5-|--2----------||----------------3-| 
|---------------------5-|--2----------||-5--------3-(3)-3-| 
|--(8)-----------(8)\-3-|--0----------||-5--------3-(3)-1-| 
|-----------------------|-------------||-3--------1-(1)---| 
| 
|  +H            +E   E    W             Q  Q  E. S +E  E 
|-----------------------|-------------||------------------| 
|-----------------------|-------------||------------------| 
|--(3)-----------(3)--5-|--2----------||----------------3-| 
|---------------------5-|--2----------||-5--------3-(3)-3-| 
|--(1)-----------(1)--3-|--0----------||-5--------3-(3)-1-| 
|-----------------------|-------------||-3--------1-(1)---| 


                                              F5    G5 
                                    Gtr II 
  W                 W                 H    E. S +E  E 
                                              |  |  | 
                                              /  /  / 

  Gtrs I, II                        Gtr I 
  H    E. S +E  E   H    E. S +E  E   H    E. S +E  E 
|-----------------|-----------------|-----------------| 
|-----------------|-----------------|-----------------| 
|---------------3-|---------------3-|---------5-(5)-8-| 
|---------3-(3)-3-|---------3-(3)-3-|---------3-(3)-8-| 
|---------3-(3)-1-|---------3-(3)-1-|---------3-(3)-6-| 
|---------1-(1)---|---------1-(1)---|-----------------| 


  Gtrs I, II 
  E Q  E E. S +E  E   H    E. S +E  E   H    E. S +E  E 
|-------------------|-----------------|-----------------| 
|-------------------|-----------------|-----------------| 
|-------------------|-----------------|-----------------| 
|-8------8--6-(6)-8-|------8--6-(6)-8-|------8--6-(6)-8-| 
|-8------8--6-(6)-8-|------8--6-(6)-8-|------8--6-(6)-8-| 
|-6------6--4-(4)-6-|------6--4-(4)-6-|------6--4-(4)-6-| 


                     Guitar Solo - D/Time Feel 
                      C5    C 
                   Gtrs I, II 
  W                    E     S  S  S  S  S  S  S      S  S  S   S   S   S   S 
                       |     |  |  |  |  |  |  |      |  |  |   |   |   |   | 
                       /     o  /  /  /  /  /  /      /  /  /   /   /   /   / 

                   Gtr III 
  H    E. S +E   E     S  S  S  S  S  S  S  S  S      S  S  S   S   S   S   S 
|------------------||---------------------------------------------------------| 
|------------------||---------------------------------------------------------| 
|------------------||-10-10-10-10-10-10-10-10-10b12==10-10-10-10-10-10-10-| 
|------8--6-(6)-10-||---------------------------------------------------------| 
|------8--6-(6)-10-||---------------------------------------------------------| 
|------6--4-(4)--8-||---------------------------------------------------------| 


|-Rhy Fig 14 (Rhythm slashes)                                    end Rhy Fig 14-| 
    S   S   S   S   S   S   S   S   S   S   S   S   S      S      S      S 
    |   |   |   |   |   |   |   |   |   |   |   |   |      |      |      | 
    /   /   /   /   /   /   /   /   /   /   /   /   /      /      /      / 

    S   S   S   S   S   S   S   S   S   S   S   S   S      S      S      S 
|-------------------------------------------------------------------------------| 
|-------------------------------------------------------------------------------| 
|-10-10-10-10-10-10-10-10-10-10-10-10r-10pb11-10pb12-10pb11-10pb12==| 
|-------------------------------------------------------------------------------| 
|-------------------------------------------------------------------------------| 
|-------------------------------------------------------------------------------| 


w/Rhy Fig 14 x5 
                                        ~~~ 
   |---3----| 
   S  +S    S  S S  S S  S S  S S  S S  Q 
|-------------------------------------------------| 
|-------------------------------------------------| 
|-10r(10)p==8----8-10p8--------------8-8--------| 
|-------------10--------10-8----8-10--------------| 
|----------------------------10-------------------| 
|-------------------------------------------------| 


     ~~~ 
  S  E.      E     E     S  S  S S  S  S  S  S 
|----------------------------------------------| 
|----------------------------------------------| 
|-----------8---10---10p8------------------| 
|-8-10------------------------10-8-10-10-10-10-| 
|----------------------------------------------| 
|----------------------------------------------| 


  E   S S +S  S E    E   S  S  +S  S  E 
|-8---x-8-(8)-x-8---10---x-10-(10)-x-10----| 
|-8---x-8-(8)-x-8---10---x-10-(10)-x-10----| 
|-8---x-8-(8)-x-8---10---x-10-(10)-x-10----| 
|------------------------------------------| 
|------------------------------------------| 
|------------------------------------------| 


   E   S  S  +S  S  E    E   S  S  +S  S  E 
|-11---x-11-(11)-x-11---10---x-10-(10)-x-10---| 
|-11---x-11-(11)-x-11---10---x-10-(10)-x-10---| 
|-11---x-11-(11)-x-11---10---x-10-(10)-x-10---| 
|---------------------------------------------| 
|---------------------------------------------| 
|---------------------------------------------| 


  E   S S +S  S E    E   S  S  +S   S  E 
|-8---x-8-(8)-x-8---10---x-10-(10)----------| 
|-8---x-8-(8)-x-8---10---x-10-(10)----------| 
|-8---x-8-(8)-x-8---10---x-10-(10)-10-10----| 
|-------------------------------------------| 
|-------------------------------------------| 
|-------------------------------------------| 


                              B5   A5(type 2) 
   S    S S  S    S S  S    S   Q   Q 
   |    | |  |    | |  |    |   |   | 
   /    / /  /    / /  /    /   /   / 


   S    S S  S    S S  E        Q   Q 
|---------8---------8------------------| 
|-------8---------8--------------------| 
|-10b12-----10b12-----10b12---/16--14--| 
|--------------------------------------| 
|--------------------------------------| 
|--------------------------------------| 



Outro - Satan's Fall (Reprise) 
 Gtrs I, II 
    PM|   PM----|   PM------|   PM--~ 
    E E S E S E E S E S   E E S E S Q   E E 
||----------------------|-------------------| 
||o---------------------|-------------------| 
||----------------------|-------------------| 
||------4---------4-----|-----4-----------5-| 
||o---------------------|--------------/4---| 
||--0-2---2-2-0-2---2-2-|-0-2---2-2-3-------| 


  PM|   PM----|   PM------|   PM| 
  E E S E S E E S E S   E E S E S Q  Q      E E +Q    H 
|---------------------|------------------||----------------*| 
|---------------------|-----------------o||----------------*| 
|---------------------|-----------4--2---||----------------*| 
|-----4---------4-----|-----4-----4--2---||-4-4-(4)\-------*| 
|---------------------|-----------2--0--o||-4-4-(4)\-------*| 
|-0-2---2-2-0-2---2-2-|-0-2---2-0--------||-2-2-(2)\-------*| 
  


  
Downloaded from www.taborama.com 

================================================================================ 



Metallica ? Mercyful Fate 

Featuring: 

 "Evil" 
 "Curse of the Pharahos" 
 "Satans Fall"  
 "Into the Coven" 
 "A corpse Wihout Soul" 

	   Guitar 1		 
	   Guitar 2		 
	   Guitar Lead	 

 Step Down 

Guitar 1 
                                                       
||--------------------|----------------------------| 
||--------------------|----------------------------| 
||--------------------|----------------------------| 
||--------------------|--------4------------4------| 
||--------------------|----------------------------| 
||--------------14---|--0--2----2--2-0--2----2--2-| 


                                                         
--------------------------|----------------------------| 
--------------------------|----------------------------| 
--------------------------|----------------------------| 
--------4--------------5--|--------4------------4------| 
--------------------4-----|----------------------------| 
--0--2----2--2-3/---------|--0--2----2--2-0--2----2--2-| 


                                                        
-------------------------|----------------------------| 
-------------------------|----------------------------| 
---------------4----2----|----------------------------| 
--------4------4----2----|--------4------------4------| 
---------------2----0----|----------------------------| 
--0--2----2--0-----------|--0--2----2--2-0--2----2--2-| 


                                                         
--------------------------|----------------------------| 
--------------------------|----------------------------| 
--------------------------|----------------------------| 
--------4--------------5--|--------4------------4------| 
--------------------4-----|----------------------------| 
--0--2----2--2-3/---------|--0--2----2--2-0--2----2--2-| 


                                                        
-------------------------|----------------------------| 
-------------------------|----------------------------| 
---------------4----2----|----------------------------| 
--------4------4----2----|--------4------------4------| 
---------------2----0----|----------------------------| 
--0--2----2--0-----------|--0--2----2--2-0--2----2--2-| 


                                                         
--------------------------|----------------------------| 
--------------------------|----------------------------| 
--------------------------|----------------------------| 
--------4--------------5--|--------4------------4------| 
--------------------4-----|----------------------------| 
--0--2----2--2-3/---------|--0--2----2--2-0--2----2--2-| 


                                                        
-------------------------|----------------------------| 
-------------------------|----------------------------| 
---------------4----2----|----------------------------| 
--------4------4----2----|--------4------------4------| 
---------------2----0----|----------------------------| 
--0--2----2--0-----------|--0--2----2--2-0--2----2--2-| 


                                                         
--------------------------|----------------------------| 
--------------------------|----------------------------| 
--------------------------|----------------------------| 
--------4--------------5--|--------4------------4------| 
--------------------4-----|----------------------------| 
--0--2----2--2-3/---------|--0--2----2--2-0--2----2--2-| 


                                                                          
-------------------------|-----------------------|----------------------| 
-------------------------|-----------------------|----------------------| 
---------------4----2----|--4--4----5------------|----------------------| 
--------4------4----2----|--4--4----5----5----5--|----5----5----5----5--| 
---------------2----0----|--2--2----3----5----5--|----5----5----5----5--| 
--0--2----2--0-----------|---------------3----3--|----3----3----3----3--| 


                                                                                 
----------------------------|--------------------------|-----------------------| 
----------------------------|--------------------------|-----------------------| 
----------------------------|--------------------------|--4--4----5------------| 
--------4------------4------|--------4--------------5--|--4--4----5----5----5--| 
----------------------------|--------------------4-----|--2--2----3----5----5--| 
--0--2----2--2-0--2----2--2-|--0--2----2--2-3/---------|---------------3----3--| 


                                                                
----------------------|-------------------|-------------------| 
----------------------|-------------------|-------------------| 
----------------------|-------------------|-------------------| 
----5----5----5----5--|--4----------------|-------------------| 
----5----5----5----5--|--4----------------|-------------------| 
----3----3----3----3--|--2----------------|--------------x----| 


                                                                                
--------------------------|------------------------|--------------------------| 
--------------------------|------------------------|--------------------------| 
--------------5-----------|--------5-----7--7~-----|--------------5-----------| 
--5h-7--7--7--5--7--7--7--|--7--7--5-----7--7~-----|--5h-7--7--7--5--7--7--7--| 
--0-----0--0-----0--0--0--|--0--0-----0------------|--0-----0--0-----0--0--0--| 
--------------------------|------------------------|--------------------------| 


                                                                               
------------------------|--------------------------|-------------------------| 
------------------------|--------------------------|-------------------------| 
--------5-----5--4------|--------------5-----------|-----------5-----7b---5--| 
--7--7--5-----5--4------|--7--7--7--7--5--7--7--7--|--7--7--7--5-----7b---5--| 
--0--0-----0------------|--0--0--0--0--------0--0--|--0--0--0-----0----------| 
------------------------|--------------------------|-------------------------| 


                                                       
---------------------------|-------------------------| 
---------------------------|-------------------------| 
--7-5----------5-----------|--------0--------0-------| 
--7-5-7--7--7--5--7--7--7--|-----2--------0----------| 
------0--0--0-----0--0--0--|--3--------2-------------| 
---------------------------|--------------------3----| 


                                                     
--------------------------|------------------------| 
--------------------------|------------------------| 
--------7-----5-----------|--------4-----7--5~-----| 
--------7-----5--7-----7--|--------4---------------| 
--0--0-----0-----0--0--0--|--0--0-----0------------| 
--------------------------|------------------------| 


                                                         
|---------------------------|-------------------------|| 
|---------------------------|-------------------------|| 
|*--------7-----5-----------|--------4-----7--5~-----*|| 
|*--------7-----5--7-----7--|--------4---------------*|| 
|---0--0-----0-----0--0--0--|--0--0-----0-------------|| 
|---------------------------|-------------------------|| 


                                                     
--------------------------|------------------------| 
--------------------------|------------------------| 
--------7-----5-----------|--------4-----7--5~-----| 
--------7-----5--7-----7--|--------4---------------| 
--0--0-----0-----0--0--0--|--0--0-----0------------| 
--------------------------|------------------------| 


                                                             
------------------------------|----------------------------| 
------------------------------|----------------------------| 
------------------------------|----------------------------| 
------------------------------|-------------------------2--| 
-----4-4-4--4-4-4--4-4-4--4-4-|--4--4-4-4--4-4-4-----4--0--| 
--0--2-2-2--2-2-2--2-2-2--2-2-|--2--2-2-2--2-2-2--0--2-----| 


                                                           
-----------------------------|---------------------------| 
-----------------------------|---------------------------| 
-----------------------------|---------------------------| 
-----------------------------|---------------------------| 
----4-4-4--4-4-4--4-4-4--4-4-|--4--4-4-4--4-4-4--2----2--| 
----2-2-2--2-2-2--2-2-2--2-2-|--2--2-2-2--2-2-2--0----0--| 


                                                             
------------------------------|----------------------------| 
------------------------------|----------------------------| 
------------------------------|----------------------------| 
------------------------------|-------------------------2--| 
--2/-4-4-4--4-4-4--4-4-4--4-4-|--4--4-4-4--4-4-4-----4--0--| 
--0/-2-2-2--2-2-2--2-2-2--2-2-|--2--2-2-2--2-2-2--0--2-----| 


                                                           
-----------------------------|---------------------------| 
-----------------------------|---------------------------| 
-----------------------------|---------------------------| 
-----------------------------|---------------------------| 
----4-4-4--4-4-4--4-4-4--4-4-|--4--4-4-4--4-4-4--2----2--| 
----2-2-2--2-2-2--2-2-2--2-2-|--2--2-2-2--2-2-2--0----0--| 


                                                             
------------------------------|----------------------------| 
------------------------------|----------------------------| 
------------------------------|----------------------------| 
------------------------------|-------------------------2--| 
-----4-4-4--4-4-4--4-4-4--4-4-|--4--4-4-4--4-4-4-----4--0--| 
--0--2-2-2--2-2-2--2-2-2--2-2-|--2--2-2-2--2-2-2--0--2-----| 


                                                           
-----------------------------|---------------------------| 
-----------------------------|---------------------------| 
-----------------------------|---------------------------| 
-----------------------------|---------------------------| 
----4-4-4--4-4-4--4-4-4--4-4-|--4--4-4-4--4-4-4--2----2--| 
----2-2-2--2-2-2--2-2-2--2-2-|--2--2-2-2--2-2-2--0----0--| 


                                                             
------------------------------|----------------------------| 
------------------------------|----------------------------| 
------------------------------|----------------------------| 
------------------------------|-------------------------2--| 
-----4-4-4--4-4-4--4-4-4--4-4-|--4--4-4-4--4-4-4-----4--0--| 
--0--2-2-2--2-2-2--2-2-2--2-2-|--2--2-2-2--2-2-2--0--2-----| 


                                                            
-----------------------------|----------------------------| 
-----------------------------|----------------------------| 
-----------------------------|----------------------------| 
-----------------------------|----------------------------| 
----4-4-4--4-4-4--4-4-4--4-4-|--4--4-4-4--4-4-4-----4--6--| 
----2-2-2--2-2-2--2-2-2--2-2-|--2--2-2-2--2-2-2--0--2--4--| 


                                                          
----------------------------|---------------------------| 
----------------------------|---------------------------| 
----------------------------|---------------------------| 
----------------------------|---------------------------| 
---------------6---------7--|-------7------7--9--11--9--| 
----4-4-4--4-4-4--4-4-4--5--|----5--5--5-5-5--7--9---7--| 


                                                                 
---------------------------|-----------------------------------| 
---------------------------|-----------------------------------| 
---------------------------|-----------------------------------| 
---------------------------|-----------------------------------| 
--------9------9------9----|--11--11-11-11--11-11-11-----4-----| 
----7-7-7--7-7-7--7-7-7----|--9---9--9--9---9--9--9---0--2--0--| 


                                                                             
-------------------------|-----------------------|-------------------------| 
-------------------------|-----------------------|-------------------------| 
-------------------------|-----------------------|-------------------------| 
-----------2-------5--4--|-------------2---------|-----------2-------7--6--| 
--4-----4--0----0--3--2--|----5--4-----0----2----|--4-----4--0-------5--4--| 
--2--0--2----------------|----3--2--0-------0----|--2--0--2-------0--------| 


                                                                           
-----------------------|-------------------------|-----------------------| 
-----------------------|-------------------------|-----------------------| 
-----------------------|-------------------------|-----------------------| 
----7--6----------2----|-----------2-------5--4--|-------------2---------| 
----5--4--0--2----0----|--4-----4--0----0--3--2--|----5--4-----0----2----| 
-------------0---------|--2--0--2----------------|----3--2--0-------0----| 


                                                                     
-------------------------|---------------------|-------------------| 
-------------------------|---------------------|-------------------| 
-------------------------|---------------------|-------------------| 
-----------2-------7--6--|------6/---9----9----|--8----------------| 
--4-----4--0-------5--4--|------4/---7----7----|--6----------------| 
--2--0--2-------0--------|---------------------|-------------------| 


                                                     
--------------------||-----------------------------| 
--------------------||-----------------------------| 
--------------------||*----------------------------| 
--------------------||*--------------------------2-| 
------------------2-||-----4--------4---5--------0-| 
--------------x---0-||-----2--2-2-2-2---3--3-3-3---| 


                                                           
----------------------------|----------------------------| 
----------------------------|----------------------------| 
----------------------------|----------------------------| 
-------------4---2----------|--------------------------2-| 
----4--------2---0--0-0-0-2-|----4--------4---5--------0-| 
----2--2-2-2--------------0-|----2--2-2-2-2---3--3-3-3---| 


                                                      
--------------------------||------------------------| 
--------------------------||------------------------| 
-------------------------*||------------------------| 
--------------4----2-----*||--------------4----2----| 
----4---------2----0---2--||----4---------2----0----| 
----2--2-2-2-----------0--||----2--2-2-2------------| 


                                                                 
----------------------------------|----------------------------| 
----------------------------------|----------------------------| 
----------------------------------|-----------------4---4--4---| 
----------------------------------|--6-6-6-6-6-6----4---4--4---| 
--4-4-4-4-4-4-4-4-4-4-4-4-4-4-4-4-|--4-4-4-4-4-4-0--2---2--2---| 
----------------------------------|----------------------------| 


                                                                 
----------------------------------|----------------------------| 
----------------------------------|----------------------------| 
----------------------------------|-----------------4---4--4---| 
----------------------------------|--6-6-6-6-6-6----4---4--4---| 
--4-4-4-4-4-4-4-4-4-4-4-4-4-4-4-4-|--4-4-4-4-4-4-0--2---2--2---| 
----------------------------------|----------------------------| 


                                                                 
----------------------------------|----------------------------| 
----------------------------------|----------------------------| 
----------------------------------|-----------------4---4--4---| 
----------------------------------|--6-6-6-6-6-6----4---4--4---| 
--4-4-4-4-4-4-4-4-4-4-4-4-4-4-4-4-|--4-4-4-4-4-4-0--2---2--2---| 
----------------------------------|----------------------------| 


                                                                 
----------------------------------|----------------------------| 
----------------------------------|----------------------------| 
----------------------------------|-----------------4---4--4---| 
----------------------------------|--6-6-6-6-6-6----4---4--4---| 
--4-4-4-4-4-4-4-4-4-4-4-4-4-4-4-4-|--4-4-4-4-4-4-0--2---2--2---| 
----------------------------------|----------------------------| 


                                                           
----------------------------|----------------------------| 
----------------------------|----------------------------| 
----------------------------|----------------------------| 
--------------------------2-|-------------4---2----------| 
----4--------4---5--------0-|----4--------2---0--0-0-0-2-| 
----2--2-2-2-2---3--3-3-3---|----2--2-2-2--------------0-| 


                                                        
----------------------------|-------------------------| 
----------------------------|-------------------------| 
----------------------------|-------------------------| 
--------------------------2-|--------------4----2-----| 
----4--------4---5--------0-|----4---------2----0---2-| 
----2--2-2-2-2---3--3-3-3---|----2--2-2-2-----------0-| 


                                                           
----------------------------|----------------------------| 
----------------------------|----------------------------| 
----------------------------|----------------------------| 
--------------------------2-|-------------4---2----------| 
----4--------4---5--------0-|----4--------2---0--0-0-0-2-| 
----2--2-2-2-2---3--3-3-3---|----2--2-2-2--------------0-| 


                                                        
----------------------------|-------------------------| 
----------------------------|-------------------------| 
----------------------------|-------------------------| 
--------------------------2-|--------------4----2-----| 
----4--------4---5--------0-|----4---------2----0---2-| 
----2--2-2-2-2---3--3-3-3---|----2--2-2-2-----------0-| 


                                                         
----------------------------|--------------------------| 
----------------------------|--------------------------| 
----------------------------|------------------------2-| 
--------------------------2-|--------------4----2--x-0-| 
----4--------4---5--------0-|----4---------2----0--x---| 
----2--2-2-2-2---3--3-3-3---|----2--2-2-2--------------| 


                                                       
--------------------------|--------------------------| 
--------------------------|--------------------------| 
------------4-----------2-|------------4-----------5-| 
----4-------2---4-------0-|----4-------2---4-------3-| 
----2--2--2-----2--2--2---|----2--2--2-----2--2--2---| 
--------------------------|--------------------------| 


                                                       
--------------------------|--------------------------| 
--------------------------|--------------------------| 
------------4-------------|--------------------------| 
----4-------2---4-----x-2-|------------4-----------5-| 
----2--2--2-----2--2--x-0-|----4-------2---4-------3-| 
--------------------------|----2--2--2-----2--2--2---| 


                                                                                 
--------------------------|--------------------------|-------------------------| 
--------------------------|--------------------------|-------------------------| 
--------------------------|--------------------------|-------------------------| 
------------4-----------2-|------------4-----------5-|------------4------------| 
----4-------2---4-------0-|----4-------2---4-------3-|----4-------2---4--4-----| 
----2--2--2-----2--2--2---|----2--2--2-----2--2--2---|----2--2--2-----2--2--0--| 


                                                                               
-------------------|--------------------------|------------------------------| 
-------------------|--------------------------|------------------------------| 
--9----------------|--7-----------------------|------------------------------| 
--9----------------|--7--------7----6----5----|--4--4-4-4--4-4-4--4-4-4--4-4-| 
--7----------------|--5--------5----4----3----|--0--2-2-2--2-2-2--2-2-2--2-2-| 
-------------------|--------------------------|------------------------------| 


                                                           
----------------------------|----------------------------| 
----------------------------|----------------------------| 
-------------------------2--|----------------------------| 
--4--4-4-4--4-4-4-----4--0--|----4--4-4-4--4-4-4--4-4-4--| 
--2--2-2-2--2-2-2--0--2-----|----2--2-2-2--2-2-2--2-2-2--| 
----------------------------|----------------------------| 


                                                            
---------------------------|------------------------------| 
---------------------------|------------------------------| 
---------------------------|------------------------------| 
--4--4-4-4--4-4-4----------|------------------------------| 
--2--2-2-2--2-2-2--2----2--|-----4-4-4--4-4-4--4-4-4--4-4-| 
-------------------0----0--|--0--2-2-2--2-2-2--2-2-2--2-2-| 


                                                            
----------------------------|-----------------------------| 
----------------------------|-----------------------------| 
----------------------------|-----------------------------| 
-------------------------2--|-----------------------------| 
--4--4-4-4--4-4-4-----4--0--|----4-4-4--4-4-4--4-4-4--4-4-| 
--2--2-2-2--2-2-2--0--2-----|----2-2-2--2-2-2--2-2-2--2-2-| 


                                                            
---------------------------|------------------------------| 
---------------------------|------------------------------| 
---------------------------|------------------------------| 
---------------------------|------------------------------| 
--4--4-4-4--4-4-4--2----2--|-----4-4-4--4-4-4--4-4-4--4-4-| 
--2--2-2-2--2-2-2--0----0--|--0--2-2-2--2-2-2--2-2-2--2-2-| 


                                                            
----------------------------|-----------------------------| 
----------------------------|-----------------------------| 
----------------------------|-----------------------------| 
-------------------------2--|-----------------------------| 
--4--4-4-4--4-4-4-----4--0--|----4-4-4--4-4-4--4-4-4--4-4-| 
--2--2-2-2--2-2-2--0--2-----|----2-2-2--2-2-2--2-2-2--2-2-| 


                                                           
----------------------------|----------------------------| 
----------------------------|----------------------------| 
----------------------------|----------------------------| 
----------------------------|----------------------------| 
--4--4-4-4--4-4-4-----4--6--|---------------6---------7--| 
--2--2-2-2--2-2-2--0--2--4--|----4-4-4--4-4-4--4-4-4--5--| 


                                                         
---------------------------|---------------------------| 
---------------------------|---------------------------| 
---------------------------|---------------------------| 
---------------------------|---------------------------| 
-------7------7--9--11--9--|--------9------9------9----| 
----5--5--5-5-5--7--9---7--|----7-7-7--7-7-7--7-7-7----| 


                                                               
-----------------------------------|-------------------------| 
-----------------------------------|-------------------------| 
-----------------------------------|-------------------------| 
-----------------------------------|-----------2-------5--4--| 
--11--11-11-11--11-11-11-----4-----|--4-----4--0----0--3--2--| 
--9---9--9--9---9--9--9---0--2--0--|--2--0--2----------------| 


                                                                           
-----------------------|-------------------------|-----------------------| 
-----------------------|-------------------------|-----------------------| 
-----------------------|-------------------------|-----------------------| 
-------------2---------|-----------2-------7--6--|----7--6----------2----| 
----5--4-----0----2----|--4-----4--0-------5--4--|----5--4--0--2----0----| 
----3--2--0-------0----|--2--0--2-------0--------|-------------0---------| 


                                                                             
-------------------------|-----------------------|-------------------------| 
-------------------------|-----------------------|-------------------------| 
-------------------------|-----------------------|-------------------------| 
-----------2-------5--4--|-------------2---------|-----------2-------7--6--| 
--4-----4--0----0--3--2--|----5--4-----0----2----|--4-----4--0-------5--4--| 
--2--0--2----------------|----3--2--0-------0----|--2--0--2-------0--------| 


                                                                            
-----------------------|----------------|----------------|----------------| 
-----------------------|----------------|----------------|----------------| 
-----------------------|--5------4------|--5------7------|--4------5------| 
----7--6----------2----|--5------4------|--5------7------|--4------5------| 
----5--4--0--2----0----|--3------2------|--3------5------|--2------3------| 
-------------0---------|----------------|----------------|----------------| 


                                                                               
----------------|---------------------------------|--------------------------| 
----------------|---------------------------------|--------------------------| 
--3------4------|-------------------5-------------|--7----7----5--7--5-------| 
--3------4------|----------7--5-----5----7--5-----|--7----7----5--7--5----6--| 
--1------2------|--0----0--------7-------------0--|--------------------------| 
----------------|---------------------------------|--------------------------| 


                                                             
---------------------------------|-------------------------| 
---------------------------------|-------------------------| 
-------------------5-------------|---------------5--0------| 
--7-------7--5-----5----7--5-----|--5------------5--0------| 
--0----0--------7-------------7--|-------7----5------------| 
---------------------------------|-------------------------| 


                                                             
---------------------------------|-------------------------| 
---------------------------------|-------------------------| 
-------------------5-------------|--7----7----5--7--5------| 
----------7--5-----5----7--5-----|--7----7----5--7--5------| 
--0----0--------7-------------0--|-------------------------| 
---------------------------------|-------------------------| 


                                                                       
--------------------------------------|--------------------2--2------| 
--------------------------------------|--------------------3--3------| 
--7p-5-----5--------------------------|--------------------2--2------| 
--------7-----7p-5p-7--5-----5--------|--------------------0--0------| 
--------------------------7-----7--5--|--7p-5-3--5p-3p-0--0--0------| 
--------------------------------------|------------------------------| 


                                                               
|----------------------------------|-------------------------| 
|----------------------------------|-------------------------| 
|*-------------------5-------------|--7----7----5--7--5------| 
|*----------7--5-----5----7--5-----|--7----7----5--7--5------| 
|---0----0--------7-------------0--|-------------------------| 
|----------------------------------|-------------------------| 


                                                                
---------------------------------|---------------------------|| 
---------------------------------|---------------------------|| 
-------------------5-------------|--------------------------*|| 
----------7--5-----5----7--5-----|--5----7--5-----5---------*|| 
--0----0--------7-------------7--|-------------7--3--5-------|| 
---------------------------------|-------------------3-------|| 


                                                                     
---------------------------------|---------------------------------| 
---------------------------------|---------------------------------| 
-------------------5-------------|---------------------------------| 
----------7--5-----5----7--5-----|----------7--5-----5----7--5-----| 
--0----0--------7-------------7--|--0----0--------7-------------7--| 
---------------------------------|---------------------------------| 


                                                             
---------------------------------|-------------------------| 
---------------------------------|-------------------------| 
-------------------5-------------|---------------5--0------| 
----------7--5-----5----7--5-----|--5------------5--0------| 
--0----0--------7-------------7--|-------7----5------------| 
---------------------------------|-------------------------| 


                                                                     
---------------------------------|---------------------------------| 
---------------------------------|---------------------------------| 
-------------------5-------------|---------------------------------| 
----------7--5-----5----7--5-----|----------7--5-----5----7--5-----| 
--0----0--------7-------------7--|--0----0--------7-------------7--| 
---------------------------------|---------------------------------| 


                                                             
---------------------------------|-------------------------| 
---------------------------------|-------------------------| 
-------------------5-------------|---------------5--0------| 
----------7--5-----5----7--5-----|--5------------5--0------| 
--0----0--------7-------------7--|-------7----5------------| 
---------------------------------|-------------------------| 


                                                                     
---------------------------------|---------------------------------| 
---------------------------------|---------------------------------| 
-------------------5-------------|---------------------------------| 
----------7--5-----5----7--5-----|----------7--5-----5----7--5-----| 
--0----0--------7-------------7--|--0----0--------7-------------7--| 
---------------------------------|---------------------------------| 


                                                             
---------------------------------|-------------------------| 
---------------------------------|-------------------------| 
-------------------5-------------|---------------5--0------| 
----------7--5-----5----7--5-----|--5------------5--0------| 
--0----0--------7-------------7--|-------7----5------------| 
---------------------------------|-------------------------| 


                                                                     
---------------------------------|---------------------------------| 
---------------------------------|---------------------------------| 
-------------------5-------------|---------------------------------| 
----------7--5-----5----7--5-----|----------7--5-----5----7--5-----| 
--0----0--------7-------------7--|--0----0--------7-------------7--| 
---------------------------------|---------------------------------| 


                                                                                 
---------------------------------|-------------------------|-------------------| 
---------------------------------|-------------------------|-------------------| 
-------------------5-------------|---------------5--0------|--7----------------| 
----------7--5-----5----7--5-----|--5------------5--0------|--7----------------| 
--0----0--------7-------------7--|-------7----5------------|--5----------------| 
---------------------------------|-------------------------|-------------------| 


                                                                     
--------------------------|-------------------|--------------------| 
--------------------------|-------------------|--------------------| 
--------------------------|--5----------------|----------x----7---| 
-----------4----4----4----|--5----------------|----------x----7---| 
-----------2----2----2----|--3----------------|----------x----5---| 
------x-------------------|-------------------|--------------------| 


                                                              
--------------------------------|---------------------------| 
--------------------------------|---------------------------| 
-------------------5------------|--10--------12-----12------| 
----------7--5-----5------------|--10--------12-----12------| 
--0----0--------7-------0----0--|------0--0------0----------| 
--------------------------------|---------------------------| 


                                                          
---------------------------------|----------------------| 
---------------------------------|----------------------| 
-------------------5-------------|------------5--0------| 
----------7--5-----5----7--5-----|------------5--0------| 
--0----0--------7-------------7--|--10-----------------| 
---------------------------------|--10-----------------| 


                                                             
---------------------------------|-------------------------| 
---------------------------------|-------------------------| 
-------------------5-------------|--7----7----5--7--5------| 
----------7--5-----5----7--5-----|--7----7----5--7--5------| 
--0----0--------7-------------0--|-------------------------| 
---------------------------------|-------------------------| 


                                                              
---------------------------------|--------------------------| 
---------------------------------|--------------------------| 
-------------------5-------------|--------------------------| 
----------7--5-----5----7--5-----|--5----7--5-----5---------| 
--0----0--------7-------------7--|-------------7--3--5------| 
---------------------------------|-------------------3------| 


                                                                     
---------------------------------|---------------------------------| 
---------------------------------|---------------------------------| 
-------------------5-------------|---------------------------------| 
----------7--5-----5----7--5-----|----------7--5-----5----7--5-----| 
--0----0--------7-------------7--|--0----0--------7-------------7--| 
---------------------------------|---------------------------------| 


                                                             
---------------------------------|-------------------------| 
---------------------------------|-------------------------| 
-------------------5-------------|---------------5--0------| 
----------7--5-----5----7--5-----|--5------------5--0------| 
--0----0--------7-------------7--|-------7----5------------| 
---------------------------------|-------------------------| 


                                                                     
---------------------------------|---------------------------------| 
---------------------------------|---------------------------------| 
-------------------5-------------|---------------------------------| 
----------7--5-----5----7--5-----|----------7--5-----5----7--5-----| 
--0----0--------7-------------7--|--0----0--------7-------------7--| 
---------------------------------|---------------------------------| 


                                                             
---------------------------------|-------------------------| 
---------------------------------|-------------------------| 
-------------------5-------------|---------------5--0------| 
----------7--5-----5----7--5-----|--5------------5--0------| 
--0----0--------7-------------7--|-------7----5------------| 
---------------------------------|-------------------------| 


                                                                     
---------------------------------|---------------------------------| 
---------------------------------|---------------------------------| 
-------------------5-------------|---------------------------------| 
----------7--5-----5----7--5-----|----------7--5-----5----7--5-----| 
--0----0--------7-------------7--|--0----0--------7-------------7--| 
---------------------------------|---------------------------------| 


                                                             
---------------------------------|-------------------------| 
---------------------------------|-------------------------| 
-------------------5-------------|---------------5--0------| 
----------7--5-----5----7--5-----|--5------------5--0------| 
--0----0--------7-------------7--|-------7----5------------| 
---------------------------------|-------------------------| 


                                                                     
---------------------------------|---------------------------------| 
---------------------------------|---------------------------------| 
-------------------5-------------|---------------------------------| 
----------7--5-----5----7--5-----|----------7--5-----5----7--5-----| 
--0----0--------7-------------7--|--0----0--------7-------------7--| 
---------------------------------|---------------------------------| 


                                                                                 
---------------------------------|-------------------------|-------------------| 
---------------------------------|-------------------------|-------------------| 
-------------------5-------------|---------------5--0------|--7----------------| 
----------7--5-----5----7--5-----|--5------------5--0------|--7----------------| 
--0----0--------7-------------7--|-------7----5------------|--5----------------| 
---------------------------------|-------------------------|-------------------| 


                                                                                 
--------------------------|-------------------|--------------------------------| 
--------------------------|-------------------|--------------------------------| 
--------------------------|--5----------------|--------------------------------| 
-----------4----4----4----|--5----------------|--7----5----4----5----4---------| 
-----------2----2----2----|--3----------------|--5----3----2----3----2----0----| 
------x-------------------|-------------------|--------------------------------| 


                                                                 
--------------------------------|-------------------|----------| 
--------------------------------|--2----------------|----------| 
--------------------------------|--2----------------|----------| 
--4-----------------------------|--2----------------|----------| 
--2----0---------0----5----4----|--0----------------|----------| 
------------3---------3----2----|-------------------|----------| 


                                                                
-----------------------|-------------------|------------------| 
-----------------------|-------------------|------------------| 
--2--2----2--2----2----|--2----------------|------------------| 
--2--2----2--2----2----|--2----------------|------------------| 
--0--0----0--0----0----|--0----------------|------------------| 
-----------------------|-------------------|------------------| 


                                                       
--------------------------|--------------------------| 
--------------------------|--------------------------| 
--------------------------|--5-----------------5--5~-| 
--7--------7--------5--7--|--5--7-----7--------5--5~-| 
--0--0--0--0--0--0--0--0--|-----0--0--0--0--0--------| 
--------------------------|--------------------------| 


                                                                               
--------------------------|-----------------------|--------------------------| 
--------------------------|-----------------------|--------------------------| 
--4--------4--------4-----|--5--------5------7----|--------------------------| 
--5--------5--------5-----|--3--------5------7----|--7--------7--------5--7--| 
-----0--0-----0--0-----0--|-----0--0--3------5----|--0--0--0--0--0--0--0--0--| 
--------------------------|-----------------------|--------------------------| 


                                                                               
--------------------------|--------------------------|-----------------------| 
--------------------------|--------------------------|-----------------------| 
--5-----------------5--5~-|--4--------4--------4-----|--5--------5------7----| 
--5--7-----7--------5--5~-|--5--------5--------5-----|--3--------5------7----| 
-----0--0--0--0--0--------|-----0--0-----0--0-----0--|-----0--0--3------5----| 
--------------------------|--------------------------|-----------------------| 


                                                       
--------------------------|--------------------------| 
--------------------------|--------------------------| 
--------------------------|--5-----------------5--5~-| 
--7--------7--------5--7--|--5--7-----7--------5--5~-| 
--0--0--0--0--0--0--0--0--|-----0--0--0--0--0--------| 
--------------------------|--------------------------| 


                                                                               
--------------------------|-----------------------|--------------------------| 
--------------------------|-----------------------|--------------------------| 
--4--------4--------4-----|--5--------5------7----|--------------------------| 
--5--------5--------5-----|--3--------5------7----|--7--------7--------5--7--| 
-----0--0-----0--0-----0--|-----0--0--3------5----|--0--0--0--0--0--0--0--0--| 
--------------------------|-----------------------|--------------------------| 


                                                                               
--------------------------|--------------------------|-----------------------| 
--------------------------|--------------------------|-----------------------| 
--5-----------------5--5~-|--4--------4--------4-----|--5--------5------7----| 
--5--7-----7--------5--5~-|--5--------5--------5-----|--3--------5------7----| 
-----0--0--0--0--0--------|-----0--0-----0--0-----0--|-----0--0--3------5----| 
--------------------------|--------------------------|-----------------------| 


                                                                           
-------------------------|---------------------|-------------------------| 
-------------------------|---------------------|-------------------------| 
--10--7----7----5--7--5--|--7------8----8------|--10--7----7----5--7--5--| 
--10--7----7----5--7--5--|--7------8----8------|--10--7----7----5--7--5--| 
--8---5----5----3--5--3--|--5------6----6------|--8---5----5----3--5--3--| 
-------------------------|---------------------|-------------------------| 


                                                                               
-----------------------|--------------------------|--------------------------| 
-----------------------|--------------------------|--------------------------| 
--7----8----9----10---|--------------------------|--5-----------------5--5~-| 
--7----8----9----10---|--7--------7--------5--7--|--5--7-----7--------5--5~-| 
--5----6----7----8----|--0--0--0--0--0--0--0--0--|-----0--0--0--0--0--------| 
-----------------------|--------------------------|--------------------------| 


                                                                               
--------------------------|-----------------------|--------------------------| 
--------------------------|-----------------------|--------------------------| 
--4--------4--------4-----|--5--------5------7----|--------------------------| 
--5--------5--------5-----|--3--------5------7----|--7--------7--------5--7--| 
-----0--0-----0--0-----0--|-----0--0--3------5----|--0--0--0--0--0--0--0--0--| 
--------------------------|-----------------------|--------------------------| 


                                                                               
--------------------------|--------------------------|-----------------------| 
--------------------------|--------------------------|-----------------------| 
--5-----------------5--5~-|--4--------4--------4-----|--5--------5------7----| 
--5--7-----7--------5--5~-|--5--------5--------5-----|--3--------5------7----| 
-----0--0--0--0--0--------|-----0--0-----0--0-----0--|-----0--0--3------5----| 
--------------------------|--------------------------|-----------------------| 


                                                                                
--------------------------|------------------------|--------------------------| 
--------------------------|------------------------|--------------------------| 
--------------------------|------------------------|--------------------------| 
--------------------------|------------------------|--------------------------| 
--5--4--4--4--4--4--4--4--|--4--4--4--4--4--5------|--5-4--4--4--4--4--4--4--| 
--3--2--2--2--2--2--2--2--|--2--2--2--2--2--3------|--3-2--2--2--2--2--2--2--| 


                                                                              
------------------------|--------------------------|------------------------| 
------------------------|--------------------------|------------------------| 
------------------------|--------------------------|------------------------| 
------------------------|--------------------------|------------------------| 
--------0--2--3--2------|--5--4--4--4--4--4--4--4--|--4--4--4--4--4--5------| 
--2--3-----------0------|--3--2--2--2--2--2--2--2--|--2--2--2--2--2--3------| 


                                                                               
--------------------------|-----------------------|--------------------------| 
--------------------------|-----------------------|--------------------------| 
--------------------------|-----2-------2---------|--------------------------| 
--------------------------|-----2-------2----2----|--7--------7--------5--7--| 
--5--4--4--4--4--4--4--4--|--4--0-------0----2----|--0--0--0--0--0--0--0--0--| 
--3--2--2--2--2--2--2--2--|--2-------0-------0----|--------------------------| 


                                                                               
--------------------------|--------------------------|-----------------------| 
--------------------------|--------------------------|-----------------------| 
--5-----------------5--5~-|--4--------4--------4-----|--5--------5------7----| 
--5--7-----7--------5--5~-|--5--------5--------5-----|--3--------5------7----| 
-----0--0--0--0--0--------|-----0--0-----0--0-----0--|-----0--0--3------5----| 
--------------------------|--------------------------|-----------------------| 


                                                       
--------------------------|--------------------------| 
--------------------------|--------------------------| 
--------------------------|--5-----------------5--5~-| 
--7--------7--------5--7--|--5--7-----7--------5--5~-| 
--0--0--0--0--0--0--0--0--|-----0--0--0--0--0--------| 
--------------------------|--------------------------| 


                                                                            
--------------------------|-----------------------|-----------------------| 
--------------------------|-----------------------|-----------------------| 
--4--------4--------4-----|--5--------5------7----|-----2-------2---------| 
--5--------5--------5-----|--3--------5------7----|-----2-------2----2----| 
-----0--0-----0--0-----0--|-----0--0--3------5----|--4--0-------0----2----| 
--------------------------|-----------------------|--2-------0-------0----| 


                                                                                 
------------------------|-----------------------|------------------------------| 
------------------------|-----------------------|------------------------------| 
--5---5---5----5----5-5-|--5---5---5------------|------------------------------| 
--5---5---5----5----5-5-|--5---5---5--5----4----|--9--x-x-9-12---9--x-x-9-12---| 
--3---3---3----3----3-3-|--3---3---3--5----4----|--7--x-x-7-10---7--x-x-7-10---| 
------------------------|-------------3----2----|------------------------------| 


                                                             
----------------------------|------------------------------| 
----------------------------|------------------------------| 
----------------------------|------------------------------| 
--9--x-x-9-12---7--9--7--9--|--9--x-x-9-12---9--x-x-9-12---| 
--7--x-x-7-10---5--7--5--7--|--7--x-x-7-10---7--x-x-7-10---| 
----------------------------|------------------------------| 


                                                             
----------------------------|------------------------------| 
----------------------------|------------------------------| 
----------------------------|------------------------------| 
--9--x-x-9-12---7--9--7--9--|--9--x-x-9-12---9--x-x-9-12---| 
--7--x-x-7-10---5--7--5--7--|--7--x-x-7-10---7--x-x-7-10---| 
----------------------------|------------------------------| 


                                                             
----------------------------|------------------------------| 
----------------------------|------------------------------| 
----------------------------|------------------------------| 
--9--x-x-9-12---7--9--7--9--|--9--x-x-9-12---9--x-x-9-12---| 
--7--x-x-7-10---5--7--5--7--|--7--x-x-7-10---7--x-x-7-10---| 
----------------------------|------------------------------| 


                                                         
----------------------------|--------------------------| 
----------------------------|--------------------------| 
----------------------------|--------------------------| 
--9--x-x-9-12---7--9--7--9--|--------------------------| 
--7--x-x-7-10---5--7--5--7--|--2--2--2--2--2--2--2--2--| 
----------------------------|--------------------------| 


                                                                                 
--------------------------|-------------------------|--------------------------| 
--------------------------|-------------------------|--------------------------| 
--------------------------|-------------------------|--------------------------| 
-----------------------7--|----4--------------------|-----------------------7--| 
--2--2--2--2--2--0--2--5--|----2--2--2--2--2--2--2--|--2--2--2--2--2--0--2--5--| 
--------------------------|-------------------------|--------------------------| 


                                                                                
-------------------------|--------------------------|-------------------------| 
-------------------------|--------------------------|-------------------------| 
-------------------------|--------------------------|-------------------------| 
-------------------------|-----------------------7--|----4--------------------| 
----5--------------------|-----------------0--2--5--|----2--2--2--2--2--2--2--| 
----3--3--3--3--3--3--3--|--3--3--3--3--3-----------|-------------------------| 


                                                                                 
--------------------------|-------------------------|--------------------------| 
--------------------------|-------------------------|--------------------------| 
--------------------------|-------------------------|--------------------------| 
-----------------------7--|----4--------------------|-----------------------7--| 
--2--2--2--2--2--0--2--5--|----2--2--2--2--2--2--2--|--2--2--2--2--2--0--2--5--| 
--------------------------|-------------------------|--------------------------| 


                                                                               
-------------------------|--------------------------|------------------------| 
-------------------------|--------------------------|------------------------| 
-------------------------|--------------------------|------------------------| 
-------------------------|-----------------------7--|----4--------4--2-------| 
----5--------------------|-----------------0--2--5--|----2--2--2--2--0----5--| 
----3--3--3--3--3--3--3--|--3--3--3--3--3-----------|---------------------3--| 


                                                          
-------------------------|------------------------------| 
-------------------------|------------------------------| 
-------------------------|------------------------------| 
----------------------9--|--9--x-x-9-12---9--x-x-9-12---| 
-------------5--4-----7--|--7--x-x-7-10---7--x-x-7-10---| 
----3--3--3--3--2--0-----|------------------------------| 


                                                             
----------------------------|------------------------------| 
----------------------------|------------------------------| 
----------------------------|------------------------------| 
--9--x-x-9-12---7--9--7--9--|--9--x-x-9-12---9--x-x-9-12---| 
--7--x-x-7-10---5--7--5--7--|--7--x-x-7-10---7--x-x-7-10---| 
----------------------------|------------------------------| 


                                                             
----------------------------|------------------------------| 
----------------------------|------------------------------| 
----------------------------|------------------------------| 
--9--x-x-9-12---7--9--7--9--|--9--x-x-9-12---9--x-x-9-12---| 
--7--x-x-7-10---5--7--5--7--|--7--x-x-7-10---7--x-x-7-10---| 
----------------------------|--7------7-10---7------7-10---| 


                                                             
----------------------------|------------------------------| 
----------------------------|------------------------------| 
----------------------------|------------------------------| 
--9--x-x-9-12---7--9--7--9--|--9--x-x-9-12---9--x-x-9-12---| 
--7--x-x-7-10---5--7--5--7--|--7--x-x-7-10---7--x-x-7-10---| 
--7------7-10---5--7--5--7--|--7------7-10---7------7-10---| 


                                                            
----------------------------|-----------------------------| 
----------------------------|-----------------------------| 
----------------------------|-----------------------------| 
--9--x-x-9-12---7--9--7--4--|--4--4-----------------------| 
--7--x-x-7-10---5--7--5--4--|--4--4--4--4-4-4--4-4-4--4-4-| 
--7------7-10---5--7--5--2--|--2--2--2--2-2-2--2-2-2--2-2-| 


                                                            
---------------------------|------------------------------| 
---------------------------|------------------------------| 
-------------------7----5--|--5---------------------------| 
-------------------7----5--|--5--5-5-5--5-5-5--5-5-5--5-5-| 
--4--4-4-4--4-4-4--5----3--|--3--3-3-3--3-3-3--3-3-3--3-3-| 
--2--2-2-2--2-2-2----------|------------------------------| 


                                                            
---------------------------|------------------------------| 
---------------------------|------------------------------| 
-------------------4----2--|--2---------------------------| 
--5--5-5-5--5-5-5--4----2--|--2--2-2-2--2-2-2--2-2-2--2-2-| 
--3--3-3-3--3-3-3--2----0--|--0--0-0-0--0-0-0--0-0-0--0-0-| 
---------------------------|------------------------------| 


                                                            
----------------------------|-----------------------------| 
----------------------------|-----------------------------| 
-------------------4--5--6--|-----------------------------| 
--2--2-2-2--2-2-2--4--5--6--|----6-6-6--6-6-6--6-6-6--6-6-| 
--0--0-0-0--0-0-0--2--3--4--|----4-4-4--4-4-4--4-4-4--4-4-| 
----------------------------|-----------------------------| 


                                                             
----------------------------|------------------------------| 
----------------------------|------------------------------| 
----------------------------|------------------------------| 
--6--6-6-6--6-6-6--7--8--9--|--9--x-x-9-12---9--x-x-9-12---| 
--4--4-4-4--4-4-4--5--6--7--|--7--x-x-7-10---7--x-x-7-10---| 
----------------------------|------------------------------| 


                                                             
----------------------------|------------------------------| 
----------------------------|------------------------------| 
----------------------------|------------------------------| 
--9--x-x-9-12---7--9--7--9--|--9--x-x-9-12---9--x-x-9-12---| 
--7--x-x-7-10---5--7--5--7--|--7--x-x-7-10---7--x-x-7-10---| 
----------------------------|------------------------------| 


                                                             
----------------------------|------------------------------| 
----------------------------|------------------------------| 
----------------------------|------------------------------| 
--9--x-x-9-12---7--9--7--9--|--9--x-x-9-12---9--x-x-9-12---| 
--7--x-x-7-10---5--7--5--7--|--7--x-x-7-10---7--x-x-7-10---| 
----------------------------|--7------7-10---7------7-10---| 


                                                             
----------------------------|------------------------------| 
----------------------------|------------------------------| 
----------------------------|------------------------------| 
--9--x-x-9-12---7--9--7--9--|--9--x-x-9-12---9--x-x-9-12---| 
--7--x-x-7-10---5--7--5--7--|--7--x-x-7-10---7--x-x-7-10---| 
--7------7-10---5--7--5--7--|--7------7-10---7------7-10---| 


                                                            
----------------------------|-----------------------------| 
----------------------------|-----------------------------| 
----------------------------|-----------------------------| 
--9--x-x-9-12---7--9--7--4--|--4--4-----------------------| 
--7--x-x-7-10---5--7--5--4--|--4--4--4--4-4-4--4-4-4--4-4-| 
--7------7-10---5--7--5--2--|--2--2--2--2-2-2--2-2-2--2-2-| 


                                                            
---------------------------|------------------------------| 
---------------------------|------------------------------| 
-------------------7----5--|--5---------------------------| 
-------------------7----5--|--5--5-5-5--5-5-5--5-5-5--5-5-| 
--4--4-4-4--4-4-4--5----3--|--3--3-3-3--3-3-3--3-3-3--3-3-| 
--2--2-2-2--2-2-2----------|------------------------------| 


                                                            
---------------------------|------------------------------| 
---------------------------|------------------------------| 
-------------------4----2--|--2---------------------------| 
--5--5-5-5--5-5-5--4----2--|--2--2-2-2--2-2-2--2-2-2--2-2-| 
--3--3-3-3--3-3-3--2----0--|--0--0-0-0--0-0-0--0-0-0--0-0-| 
---------------------------|------------------------------| 


                                                            
----------------------------|-----------------------------| 
----------------------------|-----------------------------| 
-------------------4--5--6--|-----------------------------| 
--2--2-2-2--2-2-2--4--5--6--|----6-6-6--6-6-6--6-6-6--6-6-| 
--0--0-0-0--0-0-0--2--3--4--|----4-4-4--4-4-4--4-4-4--4-4-| 
----------------------------|-----------------------------| 


                                                             
----------------------------|------------------------------| 
----------------------------|------------------------------| 
----------------------------|------------------------------| 
--6--6-6-6--6-6-6--7--8--9--|--9--x-x-9-12---9--x-x-9-12---| 
--4--4-4-4--4-4-4--5--6--7--|--7--x-x-7-10---7--x-x-7-10---| 
----------------------------|------------------------------| 


                                                             
----------------------------|------------------------------| 
----------------------------|------------------------------| 
----------------------------|------------------------------| 
--9--x-x-9-12---7--9--7--9--|--9--x-x-9-12---9--x-x-9-12---| 
--7--x-x-7-10---5--7--5--7--|--7--x-x-7-10---7--x-x-7-10---| 
----------------------------|------------------------------| 










Guitar 2 
                                                              
D#||------------------|------------------|------------------| 
A#||------------------|------------------|------------------| 
F#||------------------|------------------|------------------| 
C#||------------------|------------------|------------------| 
G#||------------------|------------------|------------------| 
D#||------------------|------------------|------------------| 


                                                        
----------------------------|-------------------------| 
----------------------------|-------------------------| 
----------------------------|---------------4----2----| 
--------4------------4------|--------4------4----2----| 
----------------------------|---------------2----0----| 
--0--2----2--2-0--2----2--2-|--0--2----2--0-----------| 


                                                         
----------------------------|--------------------------| 
----------------------------|--------------------------| 
----------------------------|--------------------------| 
--------4------------4------|--------4--------------5--| 
----------------------------|--------------------4-----| 
--0--2----2--2-0--2----2--2-|--0--2----2--2-3/---------| 


                                                        
----------------------------|-------------------------| 
----------------------------|-------------------------| 
----------------------------|---------------4----2----| 
--------4------------4------|--------4------4----2----| 
----------------------------|---------------2----0----| 
--0--2----2--2-0--2----2--2-|--0--2----2--0-----------| 


                                                         
----------------------------|--------------------------| 
----------------------------|--------------------------| 
----------------------------|--------------------------| 
--------4------------4------|--------4--------------5--| 
----------------------------|--------------------4-----| 
--0--2----2--2-0--2----2--2-|--0--2----2--2-3/---------| 


                                                        
----------------------------|-------------------------| 
----------------------------|-------------------------| 
----------------------------|---------------4----2----| 
--------4------------4------|--------4------4----2----| 
----------------------------|---------------2----0----| 
--0--2----2--2-0--2----2--2-|--0--2----2--0-----------| 


                                                         
----------------------------|--------------------------| 
----------------------------|--------------------------| 
----------------------------|--------------------------| 
--------4------------4------|--------4--------------5--| 
----------------------------|--------------------4-----| 
--0--2----2--2-0--2----2--2-|--0--2----2--2-3/---------| 


                                                                                
----------------------------|-------------------------|-----------------------| 
----------------------------|-------------------------|-----------------------| 
----------------------------|---------------4----2----|--4--4----5------------| 
--------4------------4------|--------4------4----2----|--4--4----5----5----5--| 
----------------------------|---------------2----0----|--2--2----3----5----5--| 
--0--2----2--2-0--2----2--2-|--0--2----2--0-----------|---------------3----3--| 


                                                                                
----------------------|----------------------------|--------------------------| 
----------------------|----------------------------|--------------------------| 
----------------------|----------------------------|--------------------------| 
----5----5----5----5--|--------4------------4------|--------4--------------5--| 
----5----5----5----5--|----------------------------|--------------------4-----| 
----3----3----3----3--|--0--2----2--2-0--2----2--2-|--0--2----2--2-3/---------| 


                                                                    
-----------------------|----------------------|-------------------| 
-----------------------|----------------------|-------------------| 
--4--4----5------------|----------------------|-------------------| 
--4--4----5----5----5--|----5----5----5----5--|--4----------------| 
--2--2----3----5----5--|----5----5----5----5--|--4----------------| 
---------------3----3--|----3----3----3----3--|--2----------------| 


                                                                             
------------------|------------------|------------------|------------------| 
------------------|------------------|------------------|------------------| 
------------------|------------------|------------------|------------------| 
------------------|------------------|------------------|------------------| 
------------------|------------------|------------------|------------------| 
------------------|------------------|------------------|------------------| 


                                                                             
------------------|------------------|------------------|------------------| 
------------------|------------------|------------------|------------------| 
------------------|------------------|------------------|------------------| 
------------------|------------------|------------------|------------------| 
------------------|------------------|------------------|------------------| 
------------------|------------------|------------------|------------------| 


                                                                        
------------------|--------------------------|------------------------| 
------------------|--------------------------|--------------6--5~-----| 
------------------|--------7-----5-----------|--------4---------------| 
------------------|--------7-----5--7-----7--|--------4---------------| 
------------------|--0--0-----0-----0--0--0--|--0--0-----0------------| 
------------------|--------------------------|------------------------| 


                                                         
|---------------------------|-------------------------|| 
|---------------------------|--------------6--5~------|| 
|*--------7-----5-----------|--------4---------------*|| 
|*--------7-----5--7-----7--|--------4---------------*|| 
|---0--0-----0-----0--0--0--|--0--0-----0-------------|| 
|---------------------------|-------------------------|| 


                                                     
--------------------------|------------------------| 
--------------------------|--------------6--5~-----| 
--------7-----5-----------|--------4---------------| 
--------7-----5--7-----7--|--------4---------------| 
--0--0-----0-----0--0--0--|--0--0-----0------------| 
--------------------------|------------------------| 


                                                             
------------------------------|----------------------------| 
------------------------------|----------------------------| 
------------------------------|----------------------------| 
------------------------------|-------------------------2--| 
-----4-4-4--4-4-4--4-4-4--4-4-|--4--4-4-4--4-4-4-----4--0--| 
--0--2-2-2--2-2-2--2-2-2--2-2-|--2--2-2-2--2-2-2--0--2-----| 


                                                           
-----------------------------|---------------------------| 
-----------------------------|---------------------------| 
-----------------------------|---------------------------| 
-----------------------------|---------------------------| 
----4-4-4--4-4-4--4-4-4--4-4-|--4--4-4-4--4-4-4--2----2--| 
----2-2-2--2-2-2--2-2-2--2-2-|--2--2-2-2--2-2-2--0----0--| 


                                                             
------------------------------|----------------------------| 
------------------------------|----------------------------| 
------------------------------|----------------------------| 
------------------------------|-------------------------2--| 
--2/-4-4-4--4-4-4--4-4-4--4-4-|--4--4-4-4--4-4-4-----4--0--| 
--0/-2-2-2--2-2-2--2-2-2--2-2-|--2--2-2-2--2-2-2--0--2-----| 


                                                           
-----------------------------|---------------------------| 
-----------------------------|---------------------------| 
-----------------------------|---------------------------| 
-----------------------------|---------------------------| 
----4-4-4--4-4-4--4-4-4--4-4-|--4--4-4-4--4-4-4--2----2--| 
----2-2-2--2-2-2--2-2-2--2-2-|--2--2-2-2--2-2-2--0----0--| 


                                                             
------------------------------|----------------------------| 
------------------------------|----------------------------| 
------------------------------|----------------------------| 
------------------------------|-------------------------2--| 
-----4-4-4--4-4-4--4-4-4--4-4-|--4--4-4-4--4-4-4-----4--0--| 
--0--2-2-2--2-2-2--2-2-2--2-2-|--2--2-2-2--2-2-2--0--2-----| 


                                                           
-----------------------------|---------------------------| 
-----------------------------|---------------------------| 
-----------------------------|---------------------------| 
-----------------------------|---------------------------| 
----4-4-4--4-4-4--4-4-4--4-4-|--4--4-4-4--4-4-4--2----2--| 
----2-2-2--2-2-2--2-2-2--2-2-|--2--2-2-2--2-2-2--0----0--| 


                                                             
------------------------------|----------------------------| 
------------------------------|----------------------------| 
------------------------------|----------------------------| 
------------------------------|-------------------------2--| 
-----4-4-4--4-4-4--4-4-4--4-4-|--4--4-4-4--4-4-4-----4--0--| 
--0--2-2-2--2-2-2--2-2-2--2-2-|--2--2-2-2--2-2-2--0--2-----| 


                                                            
-----------------------------|----------------------------| 
-----------------------------|----------------------------| 
-----------------------------|----------------------------| 
-----------------------------|----------------------------| 
----4-4-4--4-4-4--4-4-4--4-4-|--4--4-4-4--4-4-4-----4--6--| 
----2-2-2--2-2-2--2-2-2--2-2-|--2--2-2-2--2-2-2--0--2--4--| 


                                                                               
---------------------------|--------------------------|----------------------| 
---------------------------|--------------------------|----------------------| 
---------------------------|--------------------------|----------------------| 
---------------------------|--------------------------|----9--9----9----9----| 
-----------------6--6-6-7--|----7------------------9--|----------------------| 
----4--4--4-4-4--4--4-4-5--|----5--5--5-5-5--7--9--7--|----7--7----7----7----| 


                                                                
------------------------------------|-------------------------| 
------------------------------------|-------------------------| 
------------------------------------|-------------------------| 
--11-11-11-11-11--11-11-11----------|-----------2-------5--4--| 
------------------------------------|--4-----4--0----0--3--2--| 
--9--9--9--9--9---9--9--9---x--x----|--2--0--2----------------| 


                                                                           
-----------------------|-------------------------|-----------------------| 
-----------------------|-------------------------|-----------------------| 
-----------------------|-------------------------|-----------------------| 
-------------2---------|-----------2-------7--6--|----7--6----------2----| 
----5--4-----0----2----|--4-----4--0-------5--4--|----5--4--0--2----0----| 
----3--2--0-------0----|--2--0--2-------0--------|-------------0---------| 


                                                                             
-------------------------|-----------------------|-------------------------| 
-------------------------|-----------------------|-------------------------| 
-------------------------|-----------------------|-------------------------| 
-----------2-------5--4--|-------------2---------|-----------2-------7--6--| 
--4-----4--0----0--3--2--|----5--4-----0----2----|--4-----4--0-------5--4--| 
--2--0--2----------------|----3--2--0-------0----|--2--0--2-------0--------| 


                                                                 
----------------------|-------------------|--------------------| 
----------------------|-------------------|--------------------| 
------6----9--9--9----|--8----------------|--------------------| 
----------------------|-------------------|--------------------| 
------4----7--7--7----|--6----------------|------------------2-| 
----------------------|-------------------|--------------x---0-| 


                                                                              
|-------------------------|------------------------|------------------------| 
|-------------------------|------------------------|------------------------| 
|*------------------------|------------------------|------------------------| 
|*----------------------2-|-----------4---2--------|----------------------2-| 
|-----4----x-4---5----x-0-|----4----x-2---0----x-2-|----4----x-4---5----x-0-| 
|-----2----x-2---3----x---|----2----x----------x-0-|----2----x-2---3----x---| 


                                                     
-------------------------||------------------------| 
-------------------------||------------------------| 
------------------------*||------------------------| 
-------------4----2-----*||-------------4----2--4/-| 
----4----x-x-2----0---2--||----4----x-x-2----0-----| 
----2----x-x----------0--||----2----x-x------------| 


                                                                 
----------------------------------|----------------------------| 
----------------------------------|----------------------------| 
----------------------------------|-----------------4---4--4---| 
----------------------------------|--6-6-6-6-6-6----4---4--4---| 
--4-4-4-4-4-4-4-4-4-4-4-4-4-4-4-4-|--4-4-4-4-4-4-0--2---2--2---| 
----------------------------------|----------------------------| 


                                                                 
----------------------------------|----------------------------| 
----------------------------------|----------------------------| 
----------------------------------|-----------------4---4--4---| 
----------------------------------|--6-6-6-6-6-6----4---4--4---| 
--4-4-4-4-4-4-4-4-4-4-4-4-4-4-4-4-|--4-4-4-4-4-4-0--2---2--2---| 
----------------------------------|----------------------------| 


                                                                 
----------------------------------|----------------------------| 
----------------------------------|----------------------------| 
----------------------------------|-----------------4---4--4---| 
----------------------------------|--6-6-6-6-6-6----4---4--4---| 
--4-4-4-4-4-4-4-4-4-4-4-4-4-4-4-4-|--4-4-4-4-4-4-0--2---2--2---| 
----------------------------------|----------------------------| 


                                                                 
----------------------------------|----------------------------| 
----------------------------------|----------------------------| 
----------------------------------|-----------------4---4--4---| 
----------------------------------|--6-6-6-6-6-6----4---4--4---| 
--4-4-4-4-4-4-4-4-4-4-4-4-4-4-4-4-|--4-4-4-4-4-4-0--2---2--2---| 
----------------------------------|----------------------------| 


                                                                            
------------------------|------------------------|------------------------| 
------------------------|------------------------|------------------------| 
------------------------|------------------------|------------------------| 
----------------------2-|-----------4---2--------|----------------------2-| 
----4----x-4---5----x-0-|----4----x-2---0----x-2-|----4----x-4---5----x-0-| 
----2----x-2---3----x---|----2----x----------x-0-|----2----x-2---3----x---| 


                                                                            
------------------------|------------------------|------------------------| 
------------------------|------------------------|------------------------| 
------------------------|------------------------|------------------------| 
-------------4----2-----|----------------------2-|-----------4---2--------| 
----4----x-x-2----0---2-|----4----x-4---5----x-0-|----4----x-2---0----x-2-| 
----2----x-x----------0-|----2----x-2---3----x---|----2----x----------x-0-| 


                                                                            
------------------------|------------------------|------------------------| 
------------------------|------------------------|------------------------| 
------------------------|------------------------|------------------------| 
----------------------2-|-------------4----2-----|----------------------2-| 
----4----x-4---5----x-0-|----4----x-x-2----0---2-|----4----x-4---5----x-0-| 
----2----x-2---3----x---|----2----x-x----------0-|----2----x-2---3----x---| 


                                                       
--------------------------|--------------------------| 
--------------------------|--------------------------| 
------------------------2-|------------4-----------2-| 
--------------4----2--x-0-|----4-------2---4-------0-| 
----4---------2----0--x---|----2--x--x-----2--x--x---| 
----2--x-x-x--------------|--------------------------| 


                                                       
--------------------------|--------------------------| 
--------------------------|--------------------------| 
------------4-----------5-|------------4-------------| 
----4-------2---4-------3-|----4-------2---4-----x-2-| 
----2--x--x-----2--x--x---|----2--x--x-----2--x--x-0-| 
--------------------------|--------------------------| 


                                                       
--------------------------|--------------------------| 
--------------------------|--------------------------| 
--------------------------|--------------------------| 
------------4-----------5-|------------4-----------2-| 
----4-------2---4-------3-|----4-------2---4-------0-| 
----2--x--x-----2--x--x---|----2--x--x-----2--x--x---| 


                                                                          
--------------------------|-------------------------|-------------------| 
--------------------------|-------------------------|-------------------| 
--------------------------|-------------------------|--9----------------| 
------------4-----------5-|------------4------------|--9----------------| 
----4-------2---4-------3-|----4-------2---4--4-----|--7----------------| 
----2--x--x-----2--x--x---|----2--x--x-----2--2--0--|-------------------| 


                                                           
--------------------------|------------------------------| 
--------------------------|------------------------------| 
--7-----------------------|------------------------------| 
--7--------7----6----5----|--4--4-4-4--4-4-4--4-4-4--4-4-| 
--5--------5----4----3----|--0--2-2-2--2-2-2--2-2-2--2-2-| 
--------------------------|------------------------------| 


                                                           
----------------------------|----------------------------| 
----------------------------|----------------------------| 
-------------------------2--|----------------------------| 
--4--4-4-4--4-4-4-----4--0--|----4--4-4-4--4-4-4--4-4-4--| 
--2--2-2-2--2-2-2--0--2-----|----2--2-2-2--2-2-2--2-2-2--| 
----------------------------|----------------------------| 


                                                            
---------------------------|------------------------------| 
---------------------------|------------------------------| 
---------------------------|------------------------------| 
--4--4-4-4--4-4-4----------|------------------------------| 
--2--2-2-2--2-2-2--2----2--|-----4-4-4--4-4-4--4-4-4--4-4-| 
-------------------0----0--|--0--2-2-2--2-2-2--2-2-2--2-2-| 


                                                            
----------------------------|-----------------------------| 
----------------------------|-----------------------------| 
----------------------------|-----------------------------| 
-------------------------2--|-----------------------------| 
--4--4-4-4--4-4-4-----4--0--|----4-4-4--4-4-4--4-4-4--4-4-| 
--2--2-2-2--2-2-2--0--2-----|----2-2-2--2-2-2--2-2-2--2-2-| 


                                                            
---------------------------|------------------------------| 
---------------------------|------------------------------| 
---------------------------|------------------------------| 
---------------------------|------------------------------| 
--4--4-4-4--4-4-4--2----2--|-----4-4-4--4-4-4--4-4-4--4-4-| 
--2--2-2-2--2-2-2--0----0--|--0--2-2-2--2-2-2--2-2-2--2-2-| 


                                                            
----------------------------|-----------------------------| 
----------------------------|-----------------------------| 
----------------------------|-----------------------------| 
-------------------------2--|-----------------------------| 
--4--4-4-4--4-4-4-----4--0--|----4-4-4--4-4-4--4-4-4--4-4-| 
--2--2-2-2--2-2-2--0--2-----|----2-2-2--2-2-2--2-2-2--2-2-| 


                                                          
----------------------------|---------------------------| 
----------------------------|---------------------------| 
----------------------------|---------------------------| 
----------------------------|---------------------------| 
--4--4-4-4--4-4-4-----4--6--|-----------------6--6-6-7--| 
--2--2-2-2--2-2-2--0--2--4--|----4--4--4-4-4--4--4-4-5--| 


                                                   
--------------------------|----------------------| 
--------------------------|----------------------| 
--------------------------|----------------------| 
--------------------------|----9--9----9----9----| 
----7------------------9--|----------------------| 
----5--5--5-5-5--7--9--7--|----7--7----7----7----| 


                                                                
------------------------------------|-------------------------| 
------------------------------------|-------------------------| 
------------------------------------|-------------------------| 
--11-11-11-11-11--11-11-11----------|-----------2-------5--4--| 
------------------------------------|--4-----4--0----0--3--2--| 
--9--9--9--9--9---9--9--9---x--x----|--2--0--2----------------| 


                                                                           
-----------------------|-------------------------|-----------------------| 
-----------------------|-------------------------|-----------------------| 
-----------------------|-------------------------|-----------------------| 
-------------2---------|-----------2-------7--6--|----7--6----------2----| 
----5--4-----0----2----|--4-----4--0-------5--4--|----5--4--0--2----0----| 
----3--2--0-------0----|--2--0--2-------0--------|-------------0---------| 


                                                                             
-------------------------|-----------------------|-------------------------| 
-------------------------|-----------------------|-------------------------| 
-------------------------|-----------------------|-------------------------| 
-----------2-------5--4--|-------------2---------|-----------2-------7--6--| 
--4-----4--0----0--3--2--|----5--4-----0----2----|--4-----4--0-------5--4--| 
--2--0--2----------------|----3--2--0-------0----|--2--0--2-------0--------| 


                                                                            
-----------------------|----------------|----------------|----------------| 
-----------------------|----------------|----------------|----------------| 
-----------------------|--5------4------|--5------7------|--4------5------| 
----7--6----------2----|--5------4------|--5------7------|--4------5------| 
----5--4--0--2----0----|--3------2------|--3------5------|--2------3------| 
-------------0---------|----------------|----------------|----------------| 


                                                                           
----------------|------------------|------------------|------------------| 
----------------|------------------|------------------|------------------| 
--3------4------|------------------|------------------|------------------| 
--3------4------|------------------|------------------|------------------| 
--1------2------|------------------|------------------|------------------| 
----------------|------------------|------------------|------------------| 


                                                                             
------------------|------------------|------------------|------------------| 
------------------|------------------|------------------|------------------| 
------------------|------------------|------------------|------------------| 
------------------|------------------|------------------|------------------| 
------------------|------------------|------------------|------------------| 
------------------|------------------|------------------|------------------| 


                                                          
----------2--2------||----------------------------------| 
----------3--3------||----------------------------------| 
----------2--2------||*-------------------5-------------| 
----------0--0------||*----------7--5-----5----7--5-----| 
----------0--0------||---0----0--------7-------------0--| 
--------------------||----------------------------------| 


                                                             
-------------------------|---------------------------------| 
--7----7----5--7--5------|---------------------------------| 
--7----7----5--7--5------|-------------------5-------------| 
-------------------------|----------7--5-----5----7--5-----| 
-------------------------|--0----0--------7-------------7--| 
-------------------------|---------------------------------| 


                                                                
---------------------------||---------------------------------| 
---------------------------||---------------------------------| 
--------------------------*||-------------------5-------------| 
--5----7--5-----5---------*||----------7--5-----5----7--5-----| 
-------------7--3--5-------||--0----0--------7-------------7--| 
-------------------3-------||---------------------------------| 


                                                                     
---------------------------------|---------------------------------| 
---------------------------------|-------------------5-------------| 
---------------------------------|-------------------5-------------| 
----------7--5-----5----7--5-----|----------7--5----------7--5-----| 
--0----0--------7-------------7--|--0----0--------7-------------7--| 
---------------------------------|---------------------------------| 


                                                              
--------------------------|---------------------------------| 
--------------------------|---------------------------------| 
--------------------------|-------------------5-------------| 
--5----7--5-----5---------|----------7--5-----5----7--5-----| 
-------------7--3--5------|--0----0--------7-------------7--| 
-------------------3------|---------------------------------| 


                                                                     
---------------------------------|---------------------------------| 
---------------------------------|-------------------5-------------| 
---------------------------------|-------------------5-------------| 
----------7--5-----5----7--5-----|----------7--5----------7--5-----| 
--0----0--------7-------------7--|--0----0--------7-------------7--| 
---------------------------------|---------------------------------| 


                                                              
--------------------------|---------------------------------| 
--------------------------|---------------------------------| 
--------------------------|-------------------5-------------| 
--5----7--5-----5---------|----------7--5-----5----7--5-----| 
-------------7--3--5------|--0----0--------7-------------7--| 
-------------------3------|---------------------------------| 


                                                                     
---------------------------------|---------------------------------| 
---------------------------------|-------------------5-------------| 
---------------------------------|-------------------5-------------| 
----------7--5-----5----7--5-----|----------7--5----------7--5-----| 
--0----0--------7-------------7--|--0----0--------7-------------7--| 
---------------------------------|---------------------------------| 


                                                              
--------------------------|---------------------------------| 
--------------------------|---------------------------------| 
--------------------------|-------------------5-------------| 
--5----7--5-----5---------|----------7--5-----5----7--5-----| 
-------------7--3--5------|--0----0--------7-------------7--| 
-------------------3------|---------------------------------| 


                                                                     
---------------------------------|---------------------------------| 
---------------------------------|-------------------5-------------| 
---------------------------------|-------------------5-------------| 
----------7--5-----5----7--5-----|----------7--5----------7--5-----| 
--0----0--------7-------------7--|--0----0--------7-------------7--| 
---------------------------------|---------------------------------| 


                                                                           
--------------------------|-------------------|--------------------------| 
--------------------------|-------------------|--------------------------| 
--------------------------|--7----------------|--------------------------| 
--5----7--5-----5---------|--7----------------|-----------4----4----4----| 
-------------7--3--5------|--5----------------|-----------2----2----2----| 
-------------------3------|-------------------|------x-------------------| 


                                                                                 
-------------------|--------------------|-------------------|------------------| 
-------------------|--------------------|-------------------|------------------| 
--5----------------|----------x----7---|-------------------|------------------| 
--5----------------|----------x----7---|--2----------------|------------------| 
--3----------------|----------x----5---|--0----------------|------------------| 
-------------------|--------------------|-------------------|------------------| 









Guitar Lead 
                                                             
D#||------------------|------------------|------------------| 
A#||------------------|------------------|------------------| 
F#||------------------|------------------|------------------| 
C#||------------------|------------------|------------------| 
G#||------------------|------------------|------------------| 
D#||------------------|------------------|------------------| 


                                                                               
--14--14---14--14-----14----------|---14-------------------------------------| 
--17b-17b--17b-17b-------17p14-17b|------17p14----14-16p14-------------------| 
----------------------------------|------------16b---------16p14----14-16b---| 
----------------------------------|------------------------------16----------| 
----------------------------------|------------------------------------------| 
----------------------------------|------------------------------------------| 


                                                                 
--------------------------------|------------------------------| 
------------14--16--16r---16r---|--16r-------------------------| 
--16-14-----14--16--16r---16r---|--16b---14------------14--16--| 
--------16----------------------|------------16~---16----------| 
--------------------------------|------------------------------| 
--------------------------------|------------------------------| 


                                                                         
------------------------------------|----------------------------------| 
------------------------------------|----------------------------------| 
--16b---16-16--16-16--16-16--16-16--|--16--16--16--16--16--16p14-------| 
------------------------------------|----------------------------16~---| 
------------------------------------|----------------------------------| 
------------------------------------|----------------------------------| 


                                                                               
--------------------|------------------|------------------|------------------| 
--------------------|------------------|------------------|------------------| 
--------------------|------------------|------------------|------------------| 
--16---------------|------------------|------------------|------------------| 
--------------------|------------------|------------------|------------------| 
--------------------|------------------|------------------|------------------| 


                                                                             
------------------|------------------|------------------|------------------| 
------------------|------------------|------------------|------------------| 
------------------|------------------|------------------|------------------| 
------------------|------------------|------------------|------------------| 
------------------|------------------|------------------|------------------| 
------------------|------------------|------------------|------------------| 


                                                                             
------------------|------------------|------------------|------------------| 
------------------|------------------|------------------|------------------| 
------------------|------------------|------------------|------------------| 
------------------|------------------|------------------|------------------| 
------------------|------------------|------------------|------------------| 
------------------|------------------|------------------|------------------| 

                                                                                 
------------------|------------------||-------------------|-------------------|| 
------------------|------------------||-------------------|-------------------|| 
------------------|------------------||*------------------|------------------*|| 
------------------|------------------||*------------------|------------------*|| 
------------------|------------------||-------------------|-------------------|| 
------------------|------------------||-------------------|-------------------|| 


                                                                             
------------------|------------------|------------------|------------------| 
------------------|------------------|------------------|------------------| 
------------------|------------------|------------------|------------------| 
------------------|------------------|------------------|------------------| 
------------------|------------------|------------------|------------------| 
------------------|------------------|------------------|------------------| 


                                                                       
-----------------------|-------------------------|-------------------| 
-----------------------|-------------------------|-------------------| 
-----------------------|--------2--4b---4p2------|-------------------| 
-----------------------|--2--4--------------4~---|------4-----------| 
-----------------2--4--|-------------------------|-------------------| 
------3----2--5--------|-------------------------|-------------------| 


                                                         
------------------|------19r19p17--19r19p17--19r19p17--| 
------------------|------------------------------------| 
------------------|------------------------------------| 
------------------|------------------------------------| 
------------------|------------------------------------| 
------------------|------------------------------------| 


                                                                            
--19b-19b-19b-19b-19r-19p17-------|--------------------|------------------| 
----------------------------19----|------19-----------|------------------| 
----------------------------------|--------------------|------------------| 
----------------------------------|--------------------|------------------| 
----------------------------------|--------------------|------------------| 
----------------------------------|--------------------|------------------| 


                                                                         
--------------------------|-------------------------|------------------| 
--------------------------|--2--2-------------------|------------------| 
----4r--4p2--4--4b-4p2----|-------------------------|------------------| 
-----------------------4--|--------4p2----2--4------|------------------| 
--------------------------|------------4------------|------------------| 
--------------------------|-------------------------|------------------| 


                                                                             
------------------|------------------|------------------|------------------| 
------------------|------------------|------------------|------------------| 
------------------|------------------|------------------|------------------| 
------------------|------------------|------------------|------------------| 
------------------|------------------|------------------|------------------| 
------------------|------------------|------------------|------------------| 
                                                                               
------------------||-------------------|------------------|------------------| 
------------------||-------------------|------------------|------------------| 
------------------||*------------------|------------------|------------------| 
------------------||*------------------|------------------|------------------| 
------------------||-------------------|------------------|------------------| 
------------------||-------------------|------------------|------------------| 


                                                                          
-------------------||------------------|--------------------------------| 
-------------------||------------------|--------------------------------| 
------------------*||------------------|------------------9-------------| 
------------------*||------------------|--11---11--11-11--9---11--9h11--| 
-------------------||------------------|--------------------------------| 
-------------------||------------------|--------------------------------| 


                                                                            
-----------------------------------|--------------------------------------| 
----------------------11---9--x----|--------------------------------------| 
----------------------11---9--x----|---------------------9h-10------------| 
--11-11-11-11--11-11------------9--|--11p-9-11--11-11-11-------11--11-11--| 
-----------------------------------|--------------------------------------| 
-----------------------------------|--------------------------------------| 


                                                                   
-----------9-----------------|-----------------------------------| 
--9-----------12-9----9------|------------------9----------------| 
--9--11b-----------11---9----|------------------9b---------------| 
-----------------------------|--11---11--11-11------11--11-11-11-| 
-----------------------------|-----------------------------------| 
-----------------------------|-----------------------------------| 


                                                                         
------------------------------------|----------------------------------| 
-------11--------11p9---------------|---------------9-------------9----| 
--11---11--9-11--11p9----9~-9-10-10-|--11p9----9--9----11p9----9----9--| 
----------------------11------------|-------11--------------11---------| 
------------------------------------|----------------------------------| 
------------------------------------|----------------------------------| 


                                              
-----------------9--------------------------| 
---------------9---12-9---------------14h17p| 
--11p9----9-11b---------11-9----9b----------| 
-------11--------------------11----11-------| 
--------------------------------------------| 
--------------------------------------------| 


                                                                         
--------------------------------------------------|--------------------| 
--14h17p14h17p14h17p14h17p14h17p14h17p14h17p14h17-|-----------------16-| 
--------------------------------------------------|-----------------16-| 
--------------------------------------------------|-----------------16-| 
--------------------------------------------------|--------------------| 
--------------------------------------------------|--------------------| 


                                                                    
----------------------------|-------------------------------------| 
----------------------------|-------------------------------15-15-| 
------------16h14p16h14p-16-|--14--16-14---14-14--14--14~---------| 
----------------------------|-------------------------------------| 
----------------------------|-------------------------------------| 
----------------------------|-------------------------------------| 


                                                                    
--17-17-17-17-17-----17--------------------|--17-----------14----| 
--15-15-15-15-15-----17--17-17-17-17-17-17-|--17-----------14----| 
-------------------------------------------|----------------------| 
-------------------------------------------|----------------------| 
-------------------------------------------|----------------------| 
-------------------------------------------|----------------------| 


                                                                             
---------------------------------------------|-----------------------------| 
--14h17p14h17p14h17p14h17p14h17p14h----------|-----------------------------| 
------------------------------------14--14-0-|---------11---11-11--11---11-| 
---------------------------------------------|-----------------------------| 
---------------------------------------------|-----------------------------| 
---------------------------------------------|-----------------------------| 


                                                                               
--------------------|------------------|------------------|------------------| 
--------------------|------------------|------------------|------------------| 
--11---------------|------------------|------------------|------------------| 
--------------------|------------------|------------------|------------------| 
--------------------|------------------|------------------|------------------| 
--------------------|------------------|------------------|------------------| 


                                                                             
------------------|------------------|------------------|------------------| 
------------------|------------------|------------------|------------------| 
------------------|------------------|------------------|------------------| 
------------------|------------------|------------------|------------------| 
------------------|------------------|------------------|------------------| 
------------------|------------------|------------------|------------------| 


                                                                       
------------------|--------------------------------------------------| 
------------------|--12h15p12h15p12h15p12h15p12h15p12h15p12h15p12h15p| 
------------------|--------------------------------------------------| 
------------------|--------------------------------------------------| 
------------------|--------------------------------------------------| 
------------------|--------------------------------------------------| 


                                                                  
-----------------------------------------|----------------------| 
--12h15p12h15p12h15p12h15-15r--15r--15r--|---15-12~-------------| 
-----------------------------------------|----------------------| 
-----------------------------------------|----------------------| 
-----------------------------------------|----------------------| 
-----------------------------------------|----------------------| 


                                                                               
---------------------|-------------------------|-----------------------------| 
------12------------|----7--------------------|-----------------------------| 
------------------9b-|-------9b---9-7----7--9--|--9r-9p-7--9r9p7--9r9p7~-----| 
---------------------|----------------9--------|-----------------------------| 
---------------------|-------------------------|-----------------------------| 
---------------------|-------------------------|-----------------------------| 


                                                                     
-------------------|--------------------|--19b---19b---19b-----19-| 
-------------------|----------------17--|--------------------------| 
--7---------------|--------------------|--------------------------| 
-------------------|--------------------|--------------------------| 
-------------------|--------------------|--------------------------| 
-------------------|--------------------|--------------------------| 


                                                                         
------------------------------|-------------------|--------------------| 
----------14--17r-17~-----17-|--x----------------|--------------------| 
------14----------------------|-------------------|--------------------| 
--16--------------------------|-------------------|----------------16--| 
------------------------------|-------------------|--------------------| 
------------------------------|-------------------|--------------------| 


                                                                        
--17--17-17---------17--17-17---------|--17---------------------------| 
--------------------------------------|-------------------------------| 
--14--14-14--14-----14--14-14--14-----|--14---14--14-14---------------| 
----------------16----------------16--|-------14--14-14--16~---16-6/-| 
--------------------------------------|-------------------------------| 
--------------------------------------|-------------------------------| 


                                                                         
----------------------|-----------------------|------------------------| 
----------------------|-----------------------|------------------------| 
----------------------|-------------------11--|------11----11----11----| 
------6~---6~---6--7~-|-------------------9---|------9-----9-----9-----| 
----------------------|------9--7--9/---------|------------------------| 
----------------------|-----------------------|------------------------| 


                                                                     
-----------------------------|------------------|------------------| 
-----------------------------|------------------|------------------| 
--13--13--13--13--13---------|------------------|------------------| 
--11--11--11--11--11---------|------------------|------------------| 
-----------------------------|------------------|------------------| 
------------------------x----|------------------|------------------| 


                                                                             
------------------|------------------|------------------|------------------| 
------------------|------------------|------------------|------------------| 
------------------|------------------|------------------|------------------| 
------------------|------------------|------------------|------------------| 
------------------|------------------|------------------|------------------| 
------------------|------------------|------------------|------------------| 


------------------|------------------||-------------------|------------------| 
------------------|------------------||-------------------|------------------| 
------------------|------------------||*------------------|------------------| 
------------------|------------------||*------------------|------------------| 
------------------|------------------||-------------------|------------------| 
------------------|------------------||-------------------|------------------| 


                                                                               
------------------|-------------------||------------------|------------------| 
------------------|-------------------||------------------|------------------| 
------------------|------------------*||------------------|------------------| 
------------------|------------------*||------------------|------------------| 
------------------|-------------------||------------------|------------------| 
------------------|-------------------||------------------|------------------| 


                                                                             
------------------|------------------|------------------|------------------| 
------------------|------------------|------------------|------------------| 
------------------|------------------|------------------|------------------| 
------------------|------------------|------------------|------------------| 
------------------|------------------|------------------|------------------| 
------------------|------------------|------------------|------------------| 


                                                                             
------------------|------------------|------------------|------------------| 
------------------|------------------|------------------|------------------| 
------------------|------------------|------------------|------------------| 
------------------|------------------|------------------|------------------| 
------------------|------------------|------------------|------------------| 
------------------|------------------|------------------|------------------| 

                                                                             
------------------|------------------|------------------|------------------| 
------------------|------------------|------------------|------------------| 
------------------|------------------|------------------|------------------| 
------------------|------------------|------------------|------------------| 
------------------|------------------|------------------|------------------| 
------------------|------------------|------------------|------------------| 


                                                                             
------------------|------------------|------------------|------------------| 
------------------|------------------|------------------|------------------| 
------------------|------------------|------------------|------------------| 
------------------|------------------|------------------|------------------| 
------------------|------------------|------------------|------------------| 
------------------|------------------|------------------|------------------| 


                                                                             
------------------|------------------|------------------|------------------| 
------------------|------------------|------------------|------------------| 
------------------|------------------|------------------|------------------| 
------------------|------------------|------------------|------------------| 
------------------|------------------|------------------|------------------| 
------------------|------------------|------------------|------------------| 

                                                                             
------------------|------------------|------------------|------------------| 
------------------|------------------|------------------|------------------| 
------------------|------------------|------------------|------------------| 
------------------|------------------|------------------|------------------| 
------------------|------------------|------------------|------------------| 
------------------|------------------|------------------|------------------| 


                                                                        
----------|------------------|------------------|---------------------| 
----------|------------------|------------------|---------------------| 
----------|------------------|------------------|------4/---14--------| 
----------|------------------|------------------|---------------------| 
----------|------------------|------------------|---------------------| 
----------|------------------|------------------|---------------------| 


                                                                      
----------------------|------------------------|--------------------| 
----------------------|--13----------------13--|--12~---------------| 
--------------12h-14--|------14~---------------|--------------------| 
----------------------|------------------------|--------------------| 
----------------------|------------------------|--------------------| 
----------------------|------------------------|--------------------| 


                                                                
------------------|----------------------|--------------------| 
------------------|--13------------13~---|----------17--------| 
------------------|----------------------|--------------------| 
------------------|----------------------|--------------------| 
------------------|----------------------|--------------------| 
------------------|----------------------|--------------------| 


                                                                            
------------------------------------|------------------|------------------| 
--15-17-15-17-15-17-15-17-15~-------|------------------|------------------| 
------------------------------------|------------------|------------------| 
------------------------------------|------------------|------------------| 
------------------------------------|------------------|------------------| 
------------------------------------|------------------|------------------| 


                                                                             
------------------|------------------|------------------|------------------| 
------------------|------------------|------------------|------------------| 
------------------|------------------|------------------|------------------| 
------------------|------------------|------------------|------------------| 
------------------|------------------|------------------|------------------| 
------------------|------------------|------------------|------------------| 
                                                                                
------------------|------------------|------------------|---------------------| 
------------------|------------------|------------------|---------------------| 
------------------|------------------|------------------|---------------------| 
------------------|------------------|------------------|--7-5----------------| 
------------------|------------------|------------------|------7--------------| 
------------------|------------------|------------------|---------------------| 


                                                                             
------------------|------------------|------------------|------------------| 
------------------|------------------|------------------|------------------| 
------------------|------------------|------------------|------------------| 
------------------|------------------|------------------|------------------| 
------------------|------------------|------------------|------------------| 
------------------|------------------|------------------|------------------| 

                                                                             
------------------|------------------|------------------|----------------------| 
------------------|------------------|------------------|----------------------| 
------------------|------------------|------------------|----------------------| 
------------------|------------------|------------------|--7------7~-----5h-7--| 
------------------|------------------|------------------|----------------------| 
------------------|------------------|------------------|----------------------| 


                                                            
----------------------|-----------------------------------| 
----------------------|-----------------------------------| 
------------------5-4-|--5--x--7--x--5--x--4--------------| 
--5b------------------|-------------------------7----5----| 
-----7~---------------|-----------------------------------| 
----------------------|-----------------------------------| 


                                                             
--------------------------------|--------------------------| 
--------------------------------|--------------------------| 
--------------------------------|-----------------------5--| 
--3----2------------------------|--------------------------| 
------------5----3----5----5----|--5----3-----3--5--5-7----| 
--------------------------------|----------5---------------| 


                                                         
------------------------|------------5-----------------| 
-------5--7--7r---------|---------------8--5-----------| 
-------5--7--7r---5-----|--5--7b--------------7--5-----| 
--7~-----------------7--|---------------------------5--| 
------------------------|------------------------------| 
------------------------|------------------------------| 


                                                                  
--------------------------|------------------|------------------| 
--------------------5--5--|------------------|------------------| 
--5--7--7r-7p5------5--5--|------------------|------------------| 
---------------7~---------|------------------|------------------| 
--------------------------|------------------|------------------| 
--------------------------|------------------|------------------| 


                                                                             
------------------|------------------|------------------|------------------| 
------------------|------------------|------------------|------------------| 
------------------|------------------|------------------|------------------| 
------------------|------------------|------------------|------------------| 
------------------|------------------|------------------|------------------| 
------------------|------------------|------------------|------------------| 
                                                            
------------------|------------------|--------------------| 
------------------|------------------|--------------------| 
------------------|------------------|----------------14b-| 
------------------|------------------|--------------------| 
------------------|------------------|--------------------| 
------------------|------------------|--------------------| 


                                                       
-----------------------------------------------------| 
---12-15-12----12--15-12----12--15-12----12-15p12----| 
------------14b----------14b----------14b---------14b| 
-----------------------------------------------------| 
-----------------------------------------------------| 
-----------------------------------------------------| 


                                                 
-----------------------------------------------| 
--12-15-12------------12-----12-15-15p12-15p12-| 
-----------15-13-13r------13-------------------| 
-----------------------------------------------| 
-----------------------------------------------| 
-----------------------------------------------| 


                                                                                
---------------------------------------------------15b-|----------15b-----12--| 
--15-12-12-15-12----12-15-12----12-15-12-15b-15-12-----|----------15b---------| 
-----------------15----------15------------------------|----------------------| 
-------------------------------------------------------|----------------------| 
-------------------------------------------------------|----------------------| 
-------------------------------------------------------|----------------------| 


                                                               
--15p12-------12h15p12----------11h14p11---------------------| 
--------13-13----------12-11h12----------12-11h12-------9h12-| 
-----------------------------------------------------10------| 
--------------------------------------------------12---------| 
-------------------------------------------------------------| 
-------------------------------------------------------------| 


                                                                        
--9h12-0-0--10p8h10---10p7-9---9p6-8---|--7---------------------------| 
--------------------8--------6-------5-|------12--12---------------5/-| 
---------------------------------------|-------------13---6-6-6-------| 
---------------------------------------|------------------------7-----| 
---------------------------------------|------------------------------| 
---------------------------------------|------------------------------| 


                                                                   
--------------------------|-------------------|------------------| 
--21-------------------5-|------5-----------|------------------| 
--------2b-----2--2-2p0---|-------------------|------------------| 
--------------------------|-------------------|------------------| 
--------------------------|-------------------|------------------| 
--------------------------|-------------------|------------------| 


                                                                             
------------------|------------------|------------------|------------------| 
------------------|------------------|------------------|------------------| 
------------------|------------------|------------------|------------------| 
------------------|------------------|------------------|------------------| 
------------------|------------------|------------------|------------------| 
------------------|------------------|------------------|------------------| 

                                                                             
------------------|------------------|------------------|------------------| 
------------------|------------------|------------------|------------------| 
------------------|------------------|------------------|------------------| 
------------------|------------------|------------------|------------------| 
------------------|------------------|------------------|------------------| 
------------------|------------------|------------------|------------------| 
                                            
--------------------|----------------------| 
--------------------|----------------------| 
--------------14----|--14b-------14b-------| 
--------------------|----------------------| 
--------------------|----------------------| 
--------------------|----------------------| 


                                        
--------------------------------------| 
--------------------------------------| 
--14r-14-12-----12--14--14r--12-12-12-| 
------------14------------------------| 
--------------------------------------| 
--------------------------------------| 


                                                        
------------------------------------------------------| 
----------12--14-12-12-14-12-12-12-14-12----12-14-12--| 
--14--14---------------------------------14-----------| 
------------------------------------------------------| 
------------------------------------------------------| 
------------------------------------------------------| 

                          
-------------------------------------12--| 
---------------------------15b---14------| 
--12-12-14-12----12-14-12----------------| 
--------------14-------------------------| 
-----------------------------------------| 
-----------------------------------------| 


                                                            
--16--12-12-15-12-0-15-12-0-15-14-12-0-15-12-15-14-12-0-0-| 
----------------------------------------------------------| 
----------------------------------------------------------| 
----------------------------------------------------------| 
----------------------------------------------------------| 
----------------------------------------------------------| 


                                                                  
--15-14-12-0-15-14-12-0-15-14-12-0-15-14-12-0-15-12-15-14-12-15b| 
----------------------------------------------------------------| 
----------------------------------------------------------------| 
----------------------------------------------------------------| 
----------------------------------------------------------------| 
----------------------------------------------------------------|