Metallica

Harvester of Sorrow (ver. 2) Tab

Metallica

Difficulty: AdvancedAdvanced

by whitie

tuner correct add songbook print version text version save to e-mail
chordsukulelecavacokeyboardtabbassdrumsharmonicsflute Guitar Pro
close

there isn't a video lesson for this song

request
chords

Harvester of Sorrow (ver. 2)

  		This is an alternative to the intro of 'Harvester of Sorrow' by Metallica 
 
Tabbed By Tony 
 
-------------------------------------- 
-------------------------------------- 
-------------0--3--2------------------ 
-----3-2---0--------------3-2--------- 
---2-----0--------------2------------- 
-0--------------------0--------------- 
 
-------------------------------------- 
-------------------------------------- 
-------------------------------------- 
------0----0-------------------------- 
----0--------------------------------- 
--3------3---------------------------- 
 
 
 
Repeat as needed 

	  

Search Paypal
auto scroll beats size up size down change color hide chords drawings
tab show chords e-chords YouTube Clip e-chords hide all tabs e-chords go to top tab

share with facebook