Melvins

Lizzy

Melvins

tabs

by  JOV-CORREA

save to print version add songbook text version e-mail correct tuner
chordsukulelecavacokeyboardtabbassdrumsharmonicaflute Guitar Pro
close

there isn't a video lesson for this song

chords

Lizzy

	  		Standard Tuning 

b = Bend 
\ = Slide Down 
/ = Slide Up 
()= Harmônicos 

VERSO 
 
E|----------------| 
B|----------------| 
G|--2-------------| 
D|--2---2--4--4---| 
A|--0---0--0--3---| 
E|----------------| 
 

REFRÃO 

 
E|----------------------------------------------------------| 
B|----------------------------------------------------------| 
G|-----------7-6-----6---6-6-6------------------------------| 
D|-2-2-2-2---7-6-----6---6-6-6------------------------------| 
A|-2-2-2-2---5-4-----4---4-4-4------------------------------| 
E|-0-0-0-0--------------------------------------------------| 
 

SOLO 

 
E|----------------------------------------------------------| 
B|-------------5b------------7b------8\7--------------------| 
G|---------5---5b----5---5-x-7b------8\7--5-----------------| 
D|-2/7---7---x---------7---------------------7--5-7---------| 
A|-0--------------------------------------------------------| 
E|----------------------------------------------------------| 
 

FINAL 

 
E|------------------------------------------------| 
B|------------------------------------------------| 
G|------------------------------------------------| 
D|-(7)-------------(7)-------------(7)------------| 
A|-----(7)-(12)--------(7)-(12)--------(7)-(12)---| 
E|------------------------------------------------| 
 


 
E|----------------------------------------------------------| 
B|------------------------(12)------------------------------| 
G|-------------------(12)-----------------------------------| 
D|-(7)----------(12)----------------------------------------| 
A|-----(7)-(12)---------------------------------------------| 
E|-----------------------------(12)-------------------------| 
		  

See also:

tabs Dire Straits - Sultans of Swing tabs The Shadows - Apache tabs The Beatles - And I Love Her tabs Billy Idol - White Wedding tabs Queen - Love of my Life tabs Santana - Europa
e-chords

Other versions:

tabs Melvins - Lizzy
auto scroll beats size up size down change color hide chords drawings
tab show chords e-chords YouTube Clip e-chords hide all tabs e-chords go to top tab

share