Melvins

Roman Bird Dog

Melvins

tabs

by  RENEJUNIOR

save to print version add songbook text version e-mail correct tuner
chordsukulelecavacokeyboardtabbassdrumsharmonicaflute Guitar Pro
close

there isn't a video lesson for this song

chords

Roman Bird Dog

	  		

D|------------------------------------------------------------------| 
A|------------------------------------------------------------------| 
F|------------------------------------------------------------------| 
C|-0-0-0-0-0-0-0-0-0-0-0-1---1---1-0-0-0-0-0-0-0-0-0-0-0-6---6---6--| 
G|-0-0-0-0-0-0-0-0-0-0-0-1---1---1-0-0-0-0-0-0-0-0-0-0-0-6---6---6--| 
C|-0-0-0-0-0-0-0-0-0-0-0-1---1---1-0-0-0-0-0-0-0-0-0-0-0-6---6---6--| 

This is the part where it goes 'She looks like a well-worn one' 

D|---------------------------------|---------------------------------| 
A|---------------------------------|---------------------------------| 
F|---------------------------------|---------------------------------| 
C|-3-----3-----3-3---3-3---1-------|-1-~-----------------------------| 
G|-3-----3-----3-3---3-3-3-1-3-1-3-|-1-~-----------------------------| 
C|-3-----3-----3-3---3-3-3---3-1-3-|-1-~-----------------------------| 


D|---------------------------------|----------------------------------| 
A|---------------------------------|----------------------------------| 
F|-------------------------------8-|-7-----------------------5----6-7-| 
C|-0---0-0-0-0-0-6---6-6-1-6-1-6-8-|-7-0-0-0-0-0-0-6---1-----5----6-7-| 
G|-0---0-0-0-0-0-6---6-6-1-6-1-6-6-|-5-0-0-0-0-0-0-6---1-----3----4-5-| 
C|-0---0-0-0-0-0-6---6-6-0-6-0-6---|---0-0-0-0-0-0-6---1--------------| 

The R means let the note ring 

D|---------------------------------|----------------------------------| 
A|---------------------------------|----------------------------------| 
F|-------------------------------8-|-7--------------------------------| 
C|-0---0-0-0-0-0-6---6-6-1-6-1-6-8-|-7-0-0-0-0-0-0-6-R----------------| 
G|-0---0-0-0-0-0-6---6-6-1-6-1-6-6-|-5-0-0-0-0-0-0-6-R----------------| 
C|-0---0-0-0-0-0-6---6-6-0-6-0-6---|---0-0-0-0-0-0-6-R----------------| 

D|---------------------------------|----------------------------------| 
A|---------------------------------|----------------------------------| 
F|-------------------------------8-|-7--------------------------------| 
C|-0---0-0-0-0-0-6---6-6-1-6-1-6-8-|-7-0-0-0-0-0-0-6-R----------------| 
G|-0---0-0-0-0-0-6---6-6-1-6-1-6-6-|-5-0-0-0-0-0-0-6-R----------------| 
C|-0---0-0-0-0-0-6---6-6-0-6-0-6---|---0-0-0-0-0-0-6-R----------------| 

D|---------------------------------|--------------------------------------| 
A|---------------------------------|--------------------------------------| 
F|---------------------------------|--------------------------------------| 
C|-1-R-----------------------------|--------------------------------3b\(0)| 
G|-1-R-----------------------------|--------------------------------3b\(0)| 
C|-1-R-----------------------------|--------------------------------3b\(0)| 

Once you get here play the verse again, then go to the next bar 

D|---------------------------------|---------------------------------| 
A|---------------------------------|---------------------------------| 
F|-7-----7-----7-----------7-------|-6~------------------------------| 
C|-7-----7-----7-----0-0-0-7-0-1-0-|-6~--------0-3-0-3-0-3-0-3-0-3-0-| 
G|-5-----5-----5-----0-0-0-5-0-1-0-|-4~--------0-3-0-3-0-3-0-3-0-3-0-| 
C|-------------0-----0-0-0-0-0-1-0-|-----------0-3-0-3-0-3-0-3-0-3-0-| 

Repeat this 5x 

D|-----------------------------------------------------| 
A|-----------------------------------------------------| 
F|-5-----------------------------/8--------------------| 
C|-5---------0---------1---------/8--------------------| 
G|-3---------0---------1---------/6--------------------| 
C|-----------0---------1-------------------------------| 

D|--------------------------------------------------------| 
A|--------------------------------------------------------| 
F|-7---6-7-6---5~~--4~~--5---6---7------------------------| 
C|-7---6-7-6-5-5~~--4~~--5---6---7------------------------| 
G|-5---------5-3~~--2~~--3---4---5------------------------| 
C|-0-----------------------------0------------------------| 

End with this 

D|--------------------------------| 
A|--------------------------------| 
F|-7------------------------------| 
C|-7------------------------------| 
G|-5------------------------------| 
C|-0------------------------------| 

 
		  

See also:

tabs Deep Purple - Smoke On The Water tabs Coldplay - Fix You tabs The Shadows - Apache tabs The Beatles - All You Need Is Love Acoustic tabs Dire Straits - Brothers in Arms tabs Santana - Europa
e-chords

Other versions:

tabs Melvins - Roman Bird Dog
auto scroll beats size up size down change color hide chords drawings
tab show chords e-chords YouTube Clip e-chords hide all tabs e-chords go to top tab

share