Melvins

With Yo Heart Not Yo Hands

Melvins

tabs

by  LUCICAMARGO

save to print version add songbook text version e-mail correct tuner
chordsukulelecavacokeyboardtabbassdrumsharmonicaflute Guitar Pro
close

there isn't a video lesson for this song

chords

With Yo Heart Not Yo Hands

	  		

Intro 
e|--------------| 
B|--------------| 
G|--------------| 
D|-2------------| 
A|-2-feedback---| 
E|-0------------| 



Chorus 
e|---------------------------| 
B|---------------------------| 
G|--9-------9----------------| 
D|--9---8---9---8--7--5--2---| 
A|--7---8---7---8--7--5--2---| 
E|------6-------6--5--3--0---| 



Chorus2 
e|--------------------------------| 
B|--------------------------------| 
G|--9/10\9-------9----------------| 
D|--9/10\9---8---9---8--7--5--2---| 
A|--7/8-\7---8---7---8--7--5--2---| 
E|-----------6-------6--5--3--0---| 



Verse 
e|----------------------------------------| 
B|----------------------------------------| 
G|----------------------------------------| 
D|-------------5--------------------------| 
A|----7-7-5-7-----7-7-5-7-8-----------5h7-| 
E|--------------------------7-8-7-5h7-----| 

                               D|-----5h7-| 
    Play this instead 2nd time A|-5h7-----| 
                               E|---------| 



Bridge 
e|--------------------------| 
B|--------------------------| 
G|--------------------------| 
D|--------------------------| 
A|----3-2---1-------3p2-----| 
E|--3-----2---1-3-2-----3p2-| 



Outro 
e|----------------| 
B|----------------| 
G|----------------| 
D|---8--7--5--2---| 
A|---8--7--5--2---| 
E|---6--5--3--0---| 
		  

See also:

tabs Deep Purple - Smoke On The Water tabs Coldplay - Fix You tabs The Shadows - Apache tabs The Beatles - All You Need Is Love Acoustic tabs Dire Straits - Brothers in Arms tabs Santana - Europa
e-chords

Other versions:

tabs Melvins - With Yo Heart Not Yo Hands
auto scroll beats size up size down change color hide chords drawings
tab show chords e-chords YouTube Clip e-chords hide all tabs e-chords go to top tab

share