Mc Livinho

Meu Bem Querer

Mc Livinho

tabs

by  GUSTSILVA

save to print version add songbook text version e-mail correct tuner
chordsukulelecavacokeyboardtabbassdrumsharmonicaflute Guitar Pro
close

there isn't a video lesson for this song

chords

Meu Bem Querer

	  		E|------------------------------------------------| 
B|------------------------------------------------| 
G|------------------------------------------------| 
D|------------------2----4-2----------------------| 
A|---4--2--4---------4-------5-4--4-2-------------| 
E|-2----------5-4-2-------------------5-4-0-2-----| 

2ª parte: ( hoje tu ta de volta) 
E|------------------------------| 
B|------------------------------| 
G|------------------------------| 
D|------------------------------| 
A|---------2-4-4-2-2------------| 
E|-0-2-2-4-----------5-5-4-2----| 


3ª parte: (cai com a bunda) 
E|-------------------------------| 
B|-------------------------------| 
G|-------------------------------| 
D|-------------------------------| 
A|-0-2-4-2---2-------------------| 
E|-------------5-4--0-5-4-0-2----| 


  F#m              Bm     C#m     F#m 
Meu Bem querer ..Como é bom te ver 
F#m                  Bm   C#m      F#m 
É ruim de mais .. A falta que tu faz  
F#m             Bm        C#m 
Hoje tu Ta de volta pra mostrar que é  
F#m                  F#m       Bm 
capaz .. Cai com a bunda e fica  
  C#m     F#m 
rebola e vai 
		  

Full key step upFull key step up
Half key step upHalf key step up
Half key step downHalf key step down
Full key step downFull key step down
hide glossary

See also:

tabs Paralamas do Sucesso - Meu erro tabs Titãs - Vossa Excelência (ver. 2) tabs Legião Urbana - O Teatro Dos Vampiros tabs Engenheiros do Hawaii - Infinita Highway tabs Legião Urbana - Índios (base) tabs Raul Seixas - Cowboy fora da lei
e-chords

Other versions:

tabs Mc Livinho - Meu Bem Querer
auto scroll beats size up size down change color hide chords drawings
tab show chords e-chords YouTube Clip e-chords hide all tabs e-chords go to top tab

share