Massive Greed

Empirical Time

Massive Greed

tabs

by  VICTBORGES

save to print version add songbook text version e-mail correct tuner
chordsukulelecavacokeyboardtabbassdrumsharmonicaflute Guitar Pro
close

there isn't a video lesson for this song

chords

Empirical Time

	  		Intro parte 1: 

 
Eb|-----------------------------------------| 
Bb|-----------------------------------------| 
Gb|-----------------------------------------| 
Db|-----------------------------------------| 
Ab|--7----7---7----7---7--------------------| 
Eb|0-0--0-0-0-0--0-0-0-0--------------------| 
 

 
Eb|-----------------------------------------| 
Bb|-----------------------------------------| 
Gb|-----------------------------------------| 
Db|-----------------------------------------| 
Ab|--7----7---7----7---7--------------------| 
Eb|8-8--8-8-8-8--8-8-8-8--------------------| 
 

 
Eb|-----------------------------------------| 
Bb|-----------------------------------------| 
Gb|-----------------------------------------| 
Db|-----------------------------------------| 
Ab|--9----9---9----9---9--------------------| 
Eb|8-8--8-8-8-8--8-8-8-8--------------------| 
 

 
Eb|-----------------------------------------| 
Bb|-----------------------------------------| 
Gb|-----------------------------------------| 
Db|-----------------------------------------| 
Ab|--10---10--10---10--10-------------------| 
Eb|0-0--0-0-0-0--0-0-0-0--------------------| 
 

Sequência - â??â??â??â??â??â??â??â??â??â?? 

Intro parte 2: 

Repete intro parte 1 com sequência - â?? 8x cada um 

Intro pt 3 

Repete intro parte 1 com sequência - â?? â?? â??â??â??â??â??â?? 3x 

Riff principal 

 
Eb|-----------------------------------------| 
Bb|-----------------------------------------| 
Gb|-------5--55-----------------------------| 
Db|-2-22--5--55--5-55--7-7-7777-------------| 
Ab|-2-22--3--33--5-55--7-7-7777-------------| 
Eb|-0-00---------3-33--5-5-5555-------------| 
 

â??â??â?? 
â??â??â?? 
â??â??â?? 
â??â??â??â??â??â?? 

Parte 1: 

Guitarra 1 

 
Eb|-----------------------------------------| 
Bb|-----------------------------------------| 
Gb|---14----14---12---12---7----7----7----7-| 
Db|12----12----9----9----5----5----5----5---| 
Ab|-----------------------------------------| 
Eb|-----------------------------------------| 
 

Guitarra 2 

 
Eb|-----------------------------------------| 
Bb|-----------------------------------------| 
Gb|-----------------------------------------| 
Db|--7---7---5---5--------------------------| 
Ab|5---5---3---3-----5---5---5---5----------| 
Eb|----------------3---3---3---3------------| 
 

(Repete riff principal) 
(Repete Pt1) 
(Solo baixo + guitarra) 
(Guitarra 2 fica repetindo riff principal) 

Guitarra 1: 

Outro 
Eb|-----------------------------------------| 
Bb|-----------------------------------------| 
Gb|--4(4 temp)--2(2 temp)--0(2 temp)--------| 
Db|-----------------------------------------| 
Ab|-----------------------------------------| 
Eb|-----------------------------------------| 
(palhetada alternada várias vezes) 

Eb|-----------------------------------------| 
Bb|-----------------------------------------| 
Gb|-----------------------------------------| 
Db|--4(2 temp)--0(4 temp)--2(8 temp)--------| 
Ab|-----------------------------------------| 
Eb|-----------------------------------------| 
(palhetada alternada várias vezes) 

Acordes: Em  C  G  Am 
		  

Full key step upFull key step up
Half key step upHalf key step up
Half key step downHalf key step down
Full key step downFull key step down
hide glossary

See also:

tabs Ira! - Poço de Sensibilidade (Solo - Acustico Mtv) tabs Deep Purple - Gypsy Kiss tabs Ira! - Envelheço na Cidade (intro) tabs Deep Purple - Smoke on the Water (solo) tabs Ira! - Eu Quero Sempre Mais (Com Pitty, intro) tabs Ira! - Prisão das Ruas
e-chords

Other versions:

tabs Massive Greed - Empirical Time
auto scroll beats size up size down change color hide chords drawings
tab show chords e-chords YouTube Clip e-chords hide all tabs e-chords go to top tab

share