Marcy Playground

Gone Crazy

Marcy Playground

tabs

by  WEEZER PILLOWS

save to print version add songbook text version e-mail correct tuner
chordsukulelecavacokeyboardtabbassdrumsharmonicaflute Guitar Pro
close

there isn't a video lesson for this song

chords

Gone Crazy

	  		gone crazy 
by marcy playground! 
 
tabbed by Weezer Pillows 
STANDARD TUNING 
 
|-------------------------------------------| 
|--9-9-7-9--10-10-/-7-7-7--10-10-/-7-7-7-10-| 
|-------------------------------------------| 
|--6-6-4-6--7--7--/-4-4-4--7--7--/-4-4-4-7--| 
|-------------------------------------------| 
|-------------------------------------------| 
 
|-------------------------------------------| 
|--5--7--9-----4---5------------------------| 
|-------------------------------------------| 
|--2--4--6---1---2--------------------------| 
|-------------------------------------------| 
|-------------------------------------------| 
 
That's all folks! 
 
have fun! 

		  

See also:

tabs Red Hot Chili Peppers - Under the Bridge tabs Eye of the tiger - Eye of the tiger tabs Los Lonely Boys - Heaven tabs Red Hot Chili Peppers - Snow (hey oh) tabs Jeff Buckley - Hallelujah tabs Red Hot Chili Peppers - Venice Queen
e-chords

Other versions:

tabs Marcy Playground - Gone Crazy
auto scroll beats size up size down change color hide chords drawings
tab show chords e-chords YouTube Clip e-chords hide all tabs e-chords go to top tab

share