Marcy Playground

Me Me Me

Marcy Playground

tabs Intermediate intermediate

by  WEEZER PILLOWS

save to print version add songbook text version e-mail correct tuner
chordsukulelecavacokeyboardtabbassdrumsharmonicaflute Guitar Pro
close

there isn't a video lesson for this song

chords

Me Me Me

	  		Me, Me, Me 
by Marcy Playground 

Intro / Verse 
|--------------------------------------| 
|--------------------------------------| 
|--9-99-99--6-66-66--------------------| 
|--9-99-99--6-66-66--7-77-77--9-99-99--| 
|--7-77-77--4-44-44--7-77-77--9-99-99--| 
|--0-00-00--4-44-44--5-55-55--7-77-77--| 

Pre-Chorus 
|-----|-----| 
|-----|-----| 
|--6--|-----| 
|--6--|--7--| x2 
|--4--|--7--| 
|-----|--5--| 

|-----|--------| 
|-----|--------| 
|--6--|--------| 
|--6--|--7--9--| x2 
|--4--|--7--9--| 
|-----|--5--7--| 

Chorus 
|--------------------------------------| 
|--------------------------------------| 
|------------------9-99-9-99--6-66-66--| 
|--7-77-77-9-99-99-9-99-9-99--6-66-66--| 
|--7-77-77-9-99-99-7-77-6-66--4-44-44--| 
|--5-55-55-7-77-77---------------------| 

|--------------------------------------| 
|--------------------------------------| 
|------------------9-99-9-99--6-66-66--| 
|--9-99-99-7-77-77-9-99-9-99--6-66-66--| x2 
|--9-99-99-7-77-77-7-77-6-66--4-44-44--| 
|--7-77-77-5-55-55---------------------| 

|---------------------| 
|---------------------| 
|---------------------| 
|--9-99-999-9-99-999--| 
|--9-99-999-9-99-999--| 
|--7-77-777-7-77-777--| 

		  

See also:

tabs Red Hot Chili Peppers - Under the Bridge tabs Eye of the tiger - Eye of the tiger tabs Los Lonely Boys - Heaven tabs Red Hot Chili Peppers - Snow (hey oh) tabs Jeff Buckley - Hallelujah tabs Red Hot Chili Peppers - Venice Queen
e-chords

Other versions:

tabs Marcy Playground - Me Me Me
auto scroll beats size up size down change color hide chords drawings
tab show chords e-chords YouTube Clip e-chords hide all tabs e-chords go to top tab

share