Marcy Playground

Sex and Candy

Marcy Playground

tabs

by  WEEZER PILLOWS

save to print version add songbook text version e-mail correct tuner
chordsukulelecavacokeyboardtabbassdrumsharmonicaflute Guitar Pro
close

there isn't a video lesson for this song

chords

Sex and Candy

	  		sex and candy  
marcy playground 
guitarist: John Wozniak 
 
STANDARD TUNING 
 
verse 
these chords are played 
|-----|-----|-----| 
|-----|-----|-----| 
|--4--|-----|-----| 
|--4--|--5--|--4--| 
|--2--|--5--|--4--| 
|-----|--3--|--2--| 
 
The fill in the Chorus 
John plays this when he says "I smell sex and-" 
|-------------------| 
|--3-3-3------------| 
|--2h4-2--2-2-------| 
|--0-0-0--2h4--2p0--| 
|-------------------| 
|-------------------| 
 
Then continues with these power chords 
while singing "-candy here" 
|-----|-----|-----| 
|-----|-----|-----| 
|--4--|-----|--2--| 
|--4--|--5--|--2--| 
|--2--|--5--|--0--| 
|-----|--3--|-----| 
 
That's all folks! 
 
Have Fun! 

		  

See also:

tabs Red Hot Chili Peppers - Under the Bridge tabs Eye of the tiger - Eye of the tiger tabs Los Lonely Boys - Heaven tabs Red Hot Chili Peppers - Snow (hey oh) tabs Jeff Buckley - Hallelujah tabs Red Hot Chili Peppers - Venice Queen
e-chords

Other versions:

tabs Marcy Playground - Sex and Candy
auto scroll beats size up size down change color hide chords drawings
tab show chords e-chords YouTube Clip e-chords hide all tabs e-chords go to top tab

share