Marcy Playground

Crazy Katie

Marcy Playground

tabs

by  WEEZER PILLOWS

save to print version add songbook text version e-mail correct tuner
chordsukulelecavacokeyboardtabbassdrumsharmonicaflute Guitar Pro
close

there isn't a video lesson for this song

chords

Crazy Katie

	  		crazy katie 
by Marcy Playground 
 
h - hammer 
 
main riff 
e|-----| |-----| 
b|--3--| |--2--| 
g|--2--| |--2--| 
d|--0--| |--2--| 
a|-----| |--0--| 
e|-----| |-----| 
 
bridge 
e|------------------------------ 
b|------3-3-0-3-0------2-2-3-2-- 
g|------2-2-2-2-2------2-2-2-2-- 
d|--0-0-0-0-0-0-0------2-2-0-2-- 
a|-----------------0-0-0-0---0-- 
e|------------------------------ 
 
(main riff) 
 
ending 
e|--2h3-2h3-2h3--0--2~-- 
b|--3-3-3-3-3-3--3--3~-- 
g|--2-2-2-2-2-2--2--2~-- 
d|---------------0--0~-- 
a|---------------------- 
e|---------------------- 
 
~enjoy~ 

		  

See also:

tabs Red Hot Chili Peppers - Under the Bridge tabs Eye of the tiger - Eye of the tiger tabs Los Lonely Boys - Heaven tabs Red Hot Chili Peppers - Snow (hey oh) tabs Jeff Buckley - Hallelujah tabs Red Hot Chili Peppers - Venice Queen
e-chords

Other versions:

tabs Marcy Playground - Crazy Katie
auto scroll beats size up size down change color hide chords drawings
tab show chords e-chords YouTube Clip e-chords hide all tabs e-chords go to top tab

share