Marc Broussard

Lonely Night in Georgia

Marc Broussard

tabs

by  THEGAME42285

save to print version add songbook text version e-mail correct tuner
chordsukulelecavacokeyboardtabbassdrumsharmonicaflute Guitar Pro
close

there isn't a video lesson for this song

chords

Lonely Night in Georgia

	  		Capo III (All chords and tab relative to capo) 
 
 
Intro Riff: 
 
e--------------------------------------------------- 
B--------------------------------------------------- 
G-----------------7--------------------------------- 
D--------5-7-7s9----7h9p7--------And into Verse---- 
A---5-7--------------------------------------------- 
E---------------------------(3)--------------------- 
 
Verse: 
 
e--3---0----3----3---------------- 
B--3---0h1--3----3--------------- 
G--0---2----0----0---------------- 
D--0---2----2----0---------------- 
A--2---0----3----2---------------- 
E--3-------------3---------------- 
 
PreChorus (And this has been our story) 
 
e--2--3--2--3---------------- 
B--3--5--3--3---------------- 
G--2--4--2--0--------------- 
D--4--5--4--2---------------- 
A--2--3--2--3----------------- 
E---------------------------- 
 
Chorus: 
 
e--3--0----3--0--3----------------------- 
B--3--0h1--1--1--3-------------------------- 
G--0--2----2--2--0------------------------ 
D--0--2----3--2--0------------------------ 
A--2--0----0--0--2----------------------- 
E--3--------*----3-------------------- 
 
* this chord (x03213) is only briefly played 

		  

See also:

tabs Michael Jackson - Billie Jean (Fingerstyle) tabs Ashlee Simpson - Pieces Of Me tabs Gavin Degraw - I Don't Want To Be tabs Michael Jackson - Beat It, Black Or White E Ben (riffs) tabs Camp Rock - This Is Me tabs Gavin Degraw - I Don't wanna Be
e-chords

Other versions:

tabs Marc Broussard - Lonely Night in Georgia
auto scroll beats size up size down change color hide chords drawings
tab show chords e-chords YouTube Clip e-chords hide all tabs e-chords go to top tab

share