Low Roar

Friends Make Garbage Good Friends Take It Out

Low Roar

tabs

by  TARIKIKE

save to print version add songbook text version e-mail correct tuner
chordsukulelecavacokeyboardtabbassdrumsharmonicaflute Guitar Pro
close

there isn't a video lesson for this song

chords

Friends Make Garbage Good Friends Take It Out

	  		<
b>Standard Tuning 


|----------------------------------------------------------| 
|------------------------------------------------1---------| 
|-------0----------------0---0------------0----0---0-------| 
|---0-0---0-0-0-0-0--0-0---0---0-0-0--0-0---0--------0-----| 
|--------------3-3----------------------------3-3-3-3------| 
|--3-3-3-3-3-3------3-3-3-3-3-3-2-2--0-0-0-0---------------| 
| 
|-----------------------------------------------------| 
|------------------------0-----1----------------------| 
|-------0---0----------------0---0--------0---0---0---| 
|---0-0---0---0-0-0--0-0---0-------0--0-0---0---0-----| 
|---------------------------3-3-3-3-------------------| 
|--3-3-3-3-3-3-2-2--0-0-0-0----------3-3-3-3-3-3-3-3--| 
		  

See also:

tabs Ira! - Poço de Sensibilidade (Solo - Acustico Mtv) tabs Deep Purple - Gypsy Kiss tabs Ira! - Envelheço na Cidade (intro) tabs Deep Purple - Smoke on the Water (solo) tabs Ira! - Eu Quero Sempre Mais (Com Pitty, intro) tabs Ira! - Prisão das Ruas
e-chords

Other versions:

tabs Low Roar - Friends Make Garbage Good Friends Take It Out
auto scroll beats size up size down change color hide chords drawings
tab show chords e-chords YouTube Clip e-chords hide all tabs e-chords go to top tab

share