Loudness

Never Change Your Mind

Loudness

tabs Advanced advanced

by  LUCICAMARGO

save to print version add songbook text version e-mail correct tuner
chordsukulelecavacokeyboardtabbassdrumsharmonicaflute Guitar Pro
close

there isn't a video lesson for this song

chords

Never Change Your Mind

	  		
Intro:
 
Medium fast 
   Gm                                  D         Dsus2  Dsus4  D     Dsus2 
e:|----3-----3-----3----3-----3-----3-|----2-----0------3------2-----0-----| 
B:|------3-----3-----3----3-----3-----|------3-----3------3------3-----3---| 
g:|--------3-----3----------3-----3---|--------2-----2------2------2-----2-| 
D:|-5---------------------------------|-0----------------------------------| 
A:|-----------------------------------|------------------------------------| 
E:|-----------------------------------|------------------------------------| 


   Gm                                  D         Dsus2  Dsus4  D      
e:|----3-----3-----3----3-----3-----3-|----2-----0------3------2-----------| 
B:|------3-----3-----3----3-----3-----|------3-----3------3------3---------| 
g:|--------3-----3----------3-----3---|--------2-----2------2------2-------| 
D:|-5---------------------------------|-0----------------------------------| 
A:|-----------------------------------|------------------------------------| 
E:|-----------------------------------|------------------------------------| 
  

   C	             Em7               Bb                Em7 
e:|--------0--------|-----0-----0-----|-----------------|--------0--------| 
B:|----------1------|-------0-----0---|---------3-------|----------0------| 
g:|------------0----|---------0-----0-|-----------3-----|------------0----| 
D:|--------------2--|-0---------------|-3-----------3---|-0------------0--| 
A:|-0-2-3-----------|-2---------------|-1---------------|-2---------------| 
E:|-----------------|-----------------|-----------------|-----------------| 


   C	             Em7               Bb                A5 
e:|-------0---------|-----0-----0-----|-----------------|-----------------| 
B:|---------1-------|-------0-----0---|---------3-------|-----------------| 
g:|-----------0-----|---------0-----0-|-----------3-----|-2----2--2--2--2-| 
D:|-------------2---|-0---------------|-3-----------3---|-2----2--2--2--2-| 
A:|-0-2-3-----------|-2---------------|-1---------------|-0----0--0--0--0-| 
E:|-----------------|-----------------|-----------------|-----------------| 
                                                            PM .| 

   G5 A5   G5 A5 
e:|-----------------|-----------------| 
B:|-----------------|-----------------| 
g:|-----------------|-----------------| 
D:|-5-7-----5-7-----|-7--7--7--7/-----| 
A:|-5-7-----5-7-----|-7--7--7--5/-----| 
E:|-3-5-----3-5-----|-5--5--5--5/-----| 
    > >     > >          PM .| 


Rhy.Fig.1   ;  verse 1 and 2 
Slow 
Let ring                     play 2 times 
   D                 Bb/D              D                 Bb/D 
e:|---------2-------|---------1-------|---------2-------|---------1-------| 
B:|-----3-----3---3-|-----3-----3---3-|-----3-----3---3-|-----3-----3---3-| 
g:|---2---2-----2---|---3---3-----3---|---2---2-----2---|---3---3-----3---| 
D:|-0---------------|-0---------------|-0---------------|-0---------------| 
A:|-----------------|-----------------|-----------------|-----------------| 
E:|-----------------|-----------------|-----------------|-----------------| 

                                                         __________________ 
                                                        |1. 
   G5       A5       G5       A5       F        G        D       play 2 times 
e:|-----------------|-----------------|-----------------|-------------2---| 
B:|-----------------|-----------------|-1-------3-------|---------3-------| 
g:|-----------------|-----------------|-2-------4-------|-----2-----------| 
D:|-5-------7-------|-5-------7-------|-3-------5-------|-0---------------| 
A:|-5-------7-------|-5-------7-------|-3-------5-------|-----------------| 
E:|-3-------5-------|-3-------5-------|-1-------3-------|-----------------| 
            *                 * 
                                           end Rhy.Fig.1 
________________________________________________________ 
                                                        | 

   Dsus4   D   Dsus2 Gm               Gmsus2      Gm 
e:|-3------2---0-H2-|-3---3-3-3---3-3-|-5-----5-5-3-----| 
B:|-3------3---3-(3)|-3---3-3-3---3-3-|-3-----3-3-3-----| 
g:|-2------2---2-(2)|-3---3-3-3---3-3-|-3-----3-3-3-----| 
D:|-0------0---0-(0)|-5---5-5-5---5-5-|-5-----5-5-5-----| 
A:|-----------------|-----------------|-----------------| 
E:|-----------------|-----------------|-----------------| 

   ________________________________________________________________________ 
  |2.                                                                      
   D5                                                               A5 
e:|-----------------|-----------------|-----------------|-----------------| 
B:|-----------------|-----------------|-----------------|-----------------| 
g:|-7-7-7-7-7-7-7-7-|-7-7-7-7-7-7-7-7-|-7-7-7-7-7-7-7-7-|-7-7-7-7-7-------| 
D:|-7-7-7-7-7-7-7-7-|-7-7-7-7-7-7-7-7-|-7-7-7-7-7-7-7-7-|-7-7-7-7-7-7-----| 
A:|-5-5-5-5-5-5-5-5-|-5-5-5-5-5-5-5-5-|-5-5-5-5-5-5-5-5-|-5-5-5-5-5-7-----| 
E:|-----------------|-----------------|-----------------|-----------5-----| 
 PM - - - - - - - - - - - - - - - - - - - - - - - - - - - - - - - -|   


Rhy.Fig.2 ; Ref.                                            end Rhy.Fig.2 
         play 2 times 
   D5                A5                G5                A5 
e:|-----------------|-----------------|-----------------|-----------------| 
B:|-----------------|-----------------|-----------------|-----------------| 
g:|-----------------|-----------------|-----------------|-----------------| 
D:|-7---------------|-----------------|-----------------|-----------------| 
A:|-5---------------|-7---------------|-5---------------|-7------7-7------| 
E:|-----------------|-5---------------|-3---------------|-5------5-5------| 



Fill 1                                                          end Fill 1 
   Gm                                  D         Dsus2  Dsus4  D      
e:|----3-----3-----3----3-----3-----3-|----2-----0------3------2-----------| 
B:|------3-----3-----3----3-----3-----|------3-----3------3------3---------| 
g:|--------3-----3----------3-----3---|--------2-----2------2------2-------| 
D:|-5---------------------------------|-0----------------------------------| 
A:|-----------------------------------|------------------------------------| 
E:|-----------------------------------|------------------------------------| 



:      play 2 times                                                     : 
   E5                B5                A5                 
e:|-----------------|-----------------|-----------------|-----------------| 
B:|-----------------|-----------------|-----------------|-----------------| 
g:|-----------------|-----------------|-----------------|-2---------------| 
D:|-9----------9----|-4----------4----|-2---------------|-2---------------| 
A:|-7------7-7-7----|-2------2-2-2----|-0---------------|-0---------------| 
E:|-----------------|-----------------|-----------------|-----------------| 
        PM - -|           PM - -| 

Medium fast                           Slow 
   E5                                  D                 C#m 
e:|-----------------|-----------------|-----------------|-----------------| 
B:|-----------------|-----------------|-----------------|-----------------| 
g:|-----------------|-----------------|-----------------|-----------------| 
D:|-9-9-9-9-9-9-9-9-|-9-9-9-9-9-9-9-9-|-----------------|-----------------| 
A:|-7-7-7-7-7-7-7-7-|-7-7-7-7-7-7-7-7-|-5-----------0-5-|-4-------5-4-2-0-| 
E:|-0-0-0-0-0-0-0-0-|-0-0-0-0-0-0-0-0-|-----------------|-----------------| 
 PM - - - - - - - - - - - - - - - - -|  

   G                 D                 C#m               G 
e:|-----------------|-----------------|-----------------|-----------------| 
B:|-----------------|-----------------|-----------------|-----------------| 
g:|-----------------|-----------------|-----------------|-----------------| 
D:|-----------------|-----------------|-----------------|-----------------| 
A:|-----------0-2-4-|-5-----------0-5-|-4-------5-4-2-0-|-----------0-2-4-| 
E:|-3---0-2-3-------|-----------------|-----------------|-3---0-2-3-------| 


                                           
Rhy.Fig.2 ; Ref.                                         repeat to fade ... 
   D5                A5                G5                A5 
e:|-----------------|-----------------|-----------------|-----------------| 
B:|-----------------|-----------------|-----------------|-----------------| 
g:|-----------------|-----------------|-----------------|-----------------| 
D:|-7---------------|-----------------|-----------------|-----------------| 
A:|-5---------------|-7---------------|-5---------------|-7------7-7------| 
E:|-----------------|-5---------------|-3---------------|-5------5-5------|  
		  

Full key step upFull key step up
Half key step upHalf key step up
Half key step downHalf key step down
Full key step downFull key step down
hide glossary

See also:

tabs Ira! - Poço de Sensibilidade (Solo - Acustico Mtv) tabs Deep Purple - Smoke On The Water tabs Deep Purple - Smoke on the water (intro) tabs Ira! - Eu Quero Sempre Mais (Com Pitty, intro) tabs Deep Purple - Smoke on the Water (ver. 2) tabs Deep Purple - Knocking At Your Back Door
e-chords

Other versions:

tabs Loudness - Never Change Your Mind
auto scroll beats size up size down change color hide chords drawings
tab show chords e-chords YouTube Clip e-chords hide all tabs e-chords go to top tab

share