Lindsay Lohan

Disconnected

Lindsay Lohan

tabs

save to print version add songbook text version e-mail correct tuner
chordsukulelecavacokeyboardtabbassdrumsharmonicaflute Guitar Pro
close

there isn't a video lesson for this song

chords

Disconnected

	  		Intro 
===== 
Guitar One 
----------------------------------------------| 
----------------------------------------------| 
-----5--------3-------------------------------| 
--5----5----3---3--------3----------6------8--| 
3---------1------------3---3------6------8----| 
---------------------1----------4------6------| x5 
 
Guitar Two 
----------------------------------------------| 
----------------------------------------------| 
5--------3------------------------------------| 
5--------3--------3--------6------------------| 
3--------1--------3--------6------------------| 
------------------1--------4------------------| 
 
 
Verse 
===== 
Guitar One 
----------------------------------------------| 
----------------------------------------------| 
-----5--------3-------------------------------| 
--5----5----3---3--------3----------6------8--| 
3---------1------------3---3------6------8----| 
---------------------1----------4------6------| x5 
 
Guitar Two 
----------------------------------------------| 
----------------------------------------------| 
5--------3------------------------------------| 
5--------3--------3--------6------------------| 
3--------1--------3--------6------------------| 
------------------1--------4------------------| 
 
 
Chorus 
====== 
Guitar One 
-----------------------------------     --------------------------| 
4--------6--------8------8-8-9-8-6-     4--------6--------8-------| 
-----------------------------------     --------------------------| 
-----------------------------------     --------------------------| 
-----------------------------------     --------------------------| 
----------------------------------- x3  --------------------------| 
 
Guitar Two 
------------------------------------    --------------------------| 
------------------------------------    --------------------------| 
5-5-5-5-----------3-3-3-3-----------    5-5-5-5-5-5-5-5---------3-| 
5-5-5-5--6-6-6-6--3-3-3-3--1-1-1-1--    5-5-5-5-5-5-5-5-3-3-3-3-3-| 
3-3-3-3--6-6-6-6--1-1-1-1--1-1-1-1--    3-3-3-3-3-3-3-3-3-3-3-3-1-| 
---------4-4-4-4-----------1-1-1-1-- x3 ----------------1-1-1-1---| 
 
 
Verse 2 
======= 
Guitar One 
----------------------------------------------| 
----------------------------------------------| 
-----5--------3-------------------------------| 
--5----5----3---3--------3----------6------8--| 
3---------1------------3---3------6------8----| 
---------------------1----------4------6------| x5 
 
Guitar Two 
----------------------------------------------| 
----------------------------------------------| 
5--------3------------------------------------| 
5--------3--------3--------6------------------| 
3--------1--------3--------6------------------| 
------------------1--------4------------------| 
 
 
Chorus 2 Part 1 
======== 
Guitar One 
-----------------------------------     --------------------------------| 
4--------6--------8------8-8-9-8-6-     4--------6--------8-------------| 
-----------------------------------     ------------------------3-3-3-3-| 
-----------------------------------     ------------------------3-3-3-3-| 
-----------------------------------     ------------------------1-1-1-1-| 
----------------------------------- x3  --------------------------------| 
 
Guitar Two 
------------------------------------    --------------------------------| 
------------------------------------    --------------------------------| 
5-5-5-5-----------3-3-3-3-----------    5-5-5-5-5-5-5-5---------3-3-3-3-| 
5-5-5-5--6-6-6-6--3-3-3-3--1-1-1-1--    5-5-5-5-5-5-5-5-3-3-3-3-3-3-3-3-| 
3-3-3-3--6-6-6-6--1-1-1-1--1-1-1-1--    3-3-3-3-3-3-3-3-3-3-3-3-1-1-1-1-| 
---------4-4-4-4-----------1-1-1-1-- x3 ----------------1-1-1-1---------| 
 
 
Part 2 
====== 
Guitar One 
----------------------------------------------------------------| 
----------------------------------------------------------------| 
----------------3-3-3-3-3-3-3-3-----------------3-3-3-3-3-3-3-3-| 
3-3-3-3-6-6-6-6-3-3-3-3-3-3-3-3-3-3-3-3-6-6-6-6-3-3-3-3-3-3-3-3-| 
3-3-3-3-6-6-6-6-1-1-1-1-1-1-1-1-3-3-3-3-6-6-6-6-1-1-1-1-1-1-1-1-| 
1-1-1-1-4-4-4-4-----------------1-1-1-1-4-4-4-4-----------------| 
 
Guitar Two 
----------------------------------------------------------------| 
----------------------------------------------------------------| 
8-8-8-8-8-8-8-8-3-3-3-3-3-3-3-3-8-8-8-8-8-8-8-8-3-3-3-3-3-3-3-3-| 
6-6-6-6-8-8-8-8-3-3-3-3-3-3-3-3-6-6-6-6-8-8-8-8-3-3-3-3-3-3-3-3-| 
6-6-6-6-6-6-6-6-1-1-1-1-1-1-1-1-6-6-6-6-6-6-6-6-1-1-1-1-1-1-1-1-| 
----------------------------------------------------------------| 
 
 
Part 2 continued 
================ 
Guitar One 
----------------------------------------------------------------| 
----------------------------------------------------------------| 
----------------3-3-3-3-3-3-3-3-----------------3---------------| 
3-3-3-3-6-6-6-6-3-3-3-3-3-3-3-3-3-3-3-3-6-6-6-6-3---------------| 
3-3-3-3-6-6-6-6-1-1-1-1-1-1-1-1-3-3-3-3-6-6-6-6-1---------------| 
1-1-1-1-4-4-4-4-----------------1-1-1-1-4-4-4-4-----------------| 
 
Guitar Two 
----------------------------------------------------------------| 
----------------------------------------------------------------| 
8-8-8-8-8-8-8-8-3-3-3-3-3-3-3-3-8-8-8-8-8-8-8-8-3---------------| 
6-6-6-6-8-8-8-8-3-3-3-3-3-3-3-3-6-6-6-6-8-8-8-8-3---------------| 
6-6-6-6-6-6-6-6-1-1-1-1-1-1-1-1-6-6-6-6-6-6-6-6-1---------------| 
----------------------------------------------------------------| 
 
 
Part 3 
====== 
Guitar One 
-----------------------------------   --------------------------| 
4--------6--------8------8-8-9-8-6-   4--------6--------8-------| 
-----------------------------------   --------------------------| 
-----------------------------------   --------------------------| 
-----------------------------------   --------------------------| 
-----------------------------------x3 --------------------------| 
 
 
Guitar Two 
------------------------------------   --------------------------------------| 
------------------------------------   --------------------------------------| 
5-5-5-5-----------3-3-3-3-----------   5-5-5-5-5-5-5-5-----------------------| 
5-5-5-5--6-6-6-6--3-3-3-3--1-1-1-1--   5-5-5-5-5-5-5-5-3-3-xxx-3-3-xxx-3-3-3-| 
3-3-3-3--6-6-6-6--1-1-1-1--1-1-1-1--   3-3-3-3-3-3-3-3-3-3-xxx-3-3-xxx-3-3-3-| 
---------4-4-4-4-----------1-1-1-1--x3 ----------------1-1-xxx-1-1-xxx-1-1-1-| 
 
 
Part 4 ending 
============= 
Guitar One 
-----------------------------------     --------------------------| 
4--------6--------8------8-8-9-8-6-     4--------6--------8-------| 
-----------------------------------     --------------------------| 
-----------------------------------     --------------------------| 
-----------------------------------     --------------------------| 
----------------------------------- x3  --------------------------| 
 
 
Guitar Two 
------------------------------------    --------------------------| 
------------------------------------    --------------------------| 
5-5-5-5-----------3-3-3-3-----------    5-5-5-5-5-5-5-5---------3-| 
5-5-5-5--6-6-6-6--3-3-3-3--1-1-1-1--    5-5-5-5-5-5-5-5-3-3-3-3-3-| 
3-3-3-3--6-6-6-6--1-1-1-1--1-1-1-1--    3-3-3-3-3-3-3-3-3-3-3-3-1-| 
---------4-4-4-4-----------1-1-1-1-- x3 ----------------1-1-1-1---| 
 
Yet Another Great Song From Lindsay Lohan 

		  

See also:

tabs Eva Cassidy - Ain't No Sunshine tabs Jason Mraz - 93 Million Miles tabs Michael Jackson - BEN tabs Stevie Wonder - Sir Duke tabs Jason Mraz - I'm Yours (acoustic) tabs My Chemical Romance - Thank You For The Venom
e-chords

Other versions:

tabs Face To Face - Disconnected tabs Lindsay Lohan - Disconnected tabs Face To Face - Disconnected (ver. 2)
auto scroll beats size up size down change color hide chords drawings
tab show chords e-chords YouTube Clip e-chords hide all tabs e-chords go to top tab

share