Led Zeppelin

home > Led Zeppelin

The Rain Song (Ver. 2) Tab

Led Zeppelin

Difficulty: ExpertExpert

by miss%2Dtyler

tuner correct add songbook print version text version save to e-mail
chordsukulelecavacokeyboardtabbassdrumsharmonicsflute Guitar Pro
chords

The Rain Song (Ver. 2)

  		THE RAIN SONG 
Led Zeppelin 
album "Houses Of The Holy" 
 
(Page, Plant) 
 
Standard tuning. 
 
INTRO: 
       G5    Gmaj7           G7          Eb/G           Gsus2  G   G6 
e-|----3-------2-------|-----------------------|-------------------0----| 
B-|----3-------3-------|-----6--6--4--3---4----|---------------0---0----| 
G-|----0-------0-------|-----4--4--4--4---3----|----------2----0---0----| 
D-|----0-------0-------|------------------5----|----------0----0---0----| 
A-|----X-------X-------|-----------------------|----------X----X---x----| 
E-|----3-------3-------|--3--------------------|--3--3----3----3---3----| 
       u       u 
                                         
                       Gsus2(add5+) 
|---|--------------------------|-----| 
|---|---------1-0------3-------|-----| 
|---|---0-2-0-0-0------2-------|--%--| 
|---|---0-0-0-----2----1-------|-----| 
|---|---X---------X----X-------|-----| 
|-3-|-3-3-----------3----------|-----| 
     
CHORUS: 
    Ab9  G9  Gm9   Csus4/F C/E  C 
|---6-\-5----5---|--(3----3----3)----|-----| 
|---7-\-6----3---|---1----1----1-----|-----| 
|---5-\-4----3---|---0----0----0-----|--%--| 
|---6-\-5----3---|---3----2----2-----|-----| 
|------------5---|-------------3-----|-----| 
|------------3---|---------------{2}-|-----| 
  
INSTRUMENTAL: 
|-------------------------|----------------------|----------------------| 
|-------------------------|----0-----------------|----0-----------------| 
|--0-0-0---4-4-2-4-0h2----|--2-0---4-4-2-4-0h2---|--2-0---4-4-2-4-0h2---| 
|--0-2-0---------------2--|--1-1---------------2-|--2-2---------------2-| 
|--X----------------------|--X-------------------|--X-------------------| 
|--3----------------------|--3-------------------|--3-------------------| 
  
                    Cmaj7        Bm7sus4  Bm7 
|-------0--------|--3------3------2------2---| 
|---------3-0----|--5-----5-5-----5------3---| 
|--2-0--------0--|--4----4---4----2------2---| 
|--3-3-----------|--5---5---------4------4---| 
|--X-------------|--3--3----------2------2---| 
|--3-------------|---------------------------| 
  
  Am7sus4 
|-(0)-----0----------|---|----------------| 
|--3--------3h5p3----|---|----------------| 
|--0--------------0--|-%-|----2-0---------| 
|--2-----------------|---|----0-0---------|  (go back to intro) 
|-(0)----------------|---|----X-----------| 
|--------------------|---|----3-----------| 
 
BRIDGE: 
G                          F           C               G 
I felt the coldness of my winter,.... I never thought - you would ever go 
 
G   G   G G (E) F  (E)  F  F (E) F F   C  C  C C (A) G  (rest then repeat) 
 
 
ENDING: 
   G           F            Cmaj7       Bm7 
|--7-7-7-------5--------5)--3-3-3-2-0---2-----2-2-2--| 
|--8-8-8-10-8--6-8---(8-----5-5-5-------3-----3-3-3--| 
|--7-7-7-------5---7--------4-4-4-------2-----2-2-2--| 
|---------------------------5-5-5-------4-----4-4-4--| 
|---------------------------3-3-3-------2-----2-2-2--| 
|----------------------------------------------------| 
 
   Cmaj7  Dm7      Ebmaj7 Fm7 
|----3----5-----5----6----8-------8--11\------------| 
|----5----6----6-----8----9------9------\-----------| 
|----4----5---5------7----8-----8--------\----------| 
|----5----7--7-------8----10--10--------------------| 
|----3----5----------6----8-------------------------| 
|---------------------------------------------------| 
 
|--------1--1--1--|---|--5p3-----3-------------3p1p0---0h1-0------| 
|------2--3--2----|---|------6-3----5p3----3---------1-------1----| 
|----0------------|-%-|-----------------5-------------------------| 
|-----------------|---|------------------5------------------------| 
|-----------------|---|-------------------------------------------| 
|--3--------------|---|-------------------------------------------| 
 
                                                                  Gsus2 
|------1----------0-------------------------|------------------------------|| 
|--------3----------3--------3-3---3---3-3--|-----------------------3------|| 
|----0----------0----------0---------0------|-----------------------2------|| 
|-------------------------------------------|-----------------------0------|| 
|--3----------2----------0------------------|-----------------------X------|| 
|-------------------------------------------|-----------------------3------|| 
 
This is the springtime of my loving- 
the second season I am to know 
You are the sunlight in my growing- 
so little warmth I felt before. 
It isn't hard to feel me glowing- 
I watched the fire that grew so low. 
It is the summer of my smiles- 
flee from me Keepers of the Gloom. 
Speak to me only with your eyes 
it is to you I give this tune. 
It isn't hard to recognise- 
these things are clear to all from 
time to time. 
 
Talk Talk- 
I felt the coldness of my winter 
I never thought it would ever go 
I cursed the gloom that set upon us 
but I know that I love you so 
but I know that I love you so. 
 
These are the seasons of emotion 
And like the winds they rise and fall 
This is the wonder of devotion- 
I see the torch we all must hold. 
This is the mystery of the quotient- 
Upon us all a little rain 
must fall. 
	  

Full key step upFull key step up
Half key step upHalf key step up
Half key step downHalf key step down
Full key step downFull key step down
Search Paypal
auto scroll beats size up size down change color hide chords drawings
tab show chords e-chords YouTube Clip e-chords hide all tabs e-chords go to top tab