Led Zeppelin

home > Led Zeppelin

Stairway To Heaven (intro) Tab

Led Zeppelin

Difficulty: BeginnerBeginner

tuner correct add songbook print version text version save to e-mail
chordsukulelecavacokeyboardtabbassdrumsharmonicsflute Guitar Pro
chords

Stairway To Heaven (intro)

  		IMPORTANT NOTICE:let the strings ring 
 
e----------5--7--------7-8--------8--2--------2-0---------0- 
b-------5--------5----------5-----------3---------1-----1--- 
g----5--------------5----------5-----------2---------2------ 
d-7-----------6----------5-----------4---------------------- 
a----------------------------------------------------------- 
e----------------------------------------------------------- 
 
e-------------------------------------------5--7---------- 
b-1--------0--1-1-------------------------5--------5------ 
g----2-----0--2-2----------------------5--------------5--- 
d----------------------------------7-----------6---------- 
a----------2--0-0----0-6(7)(8)-7-0------------------------ 
e--------------------------------------------------------- 
 
e-7-8-------8--2---------2-0-----------0-------------------- 
b------5----------3-----------1-----1-----1--------0--1-1--- 
g---------5----------2-----------2-----------2-----0--2-2--- 
d---5----------4-------------------------------------------- 
a--------------------------------------------------2--0-0--- 
e----------------------------------------------------------- 
 
e----------------------0--2--------2-0----------- 
b-------------------0--------3----------1-------- 
g----------------0--------------2----------2----- 
d----------2--0-----------0---------------------- 
a-0--2--3---------------------------------------- 
e------------------------------------------------ 
 
believe me it sounds like it, you learn it n see!!! 
	  

Search Paypal
auto scroll beats size up size down change color hide chords drawings
tab show chords e-chords YouTube Clip e-chords hide all tabs e-chords go to top tab