Larkin Poe

When God Closes A Door

Larkin Poe

tabs

by  DEIVCAVALCANTI

save to print version add songbook text version e-mail correct tuner
chordsukulelecavacokeyboardtabbassdrumsharmonicaflute Guitar Pro
close

there isn't a video lesson for this song

chords

When God Closes A Door

	  		 
 


Intro 

e|-----------------------------------------------------------------------------------| 
B|-----------------------------------------------------------------------------------| 
G|--------0h2----------------0h2------------0h2--------------------------------------| x2 
D|------------2--0-----0---------2--------------2--0-----0--------5----------3-------| 
A|------------2----0h3-----------2--------------2----0h3--------5---5------3---3-----| 
D|-0h3--0--------------0h3-0----------0h3-0--------------0h3--5-------5--3-------3---| 


Verse 

e|----------------------------------------------------------------------------------| 
B|----------------------------------------------------------------------------------| 
G|-----0h2----------------0h2------------0h2----------------------------------------|  x2 
D|---------2--0-----0---------2--------------2--0-----0--------5----------3---------| 
A|---------2----0h3-----------2--------------2----0h3--------5---5------3-----------| 
D|---0--------------0h3-0----------0h3-0--------------0h3--5-------5--3-----0h3-----| 


Chorus 

e|----------------------------------------------------------------------------| 
B|----------------------------------------------------------------------------| 
G|----------------------------------------------------------------------------|  x2 
D|---------------------------------------------------------5-----3------------| 
A|---------------------------------------------------------5-----3------------| 
D|---0--------------0h3-0----------0h3-0--------------0h3--5-----3---0h3------| 


Bridge+Verse+Chorus   

e|----------------------------------------------------------------------------------------| 
B|----------------------------------------------------------------------------------------| 
G|-----0h2----------------0h2-----------------0h2-----------------------------------------|  x6 
D|---------2--0-----0---------2--0------0----------2--0-----0--------5----------3---------| 
A|---------2----0h3-----------2----0h3-------------2----0h3--------5---5------3-----------| 
D|---0--------------0h3-0---------------0h3-0---------------0h3--5-------5--3-----0h3-----| 


 (Here comes a short part only with slideguitar and drums and then) 

e|--0--0--0--0---1--1--1--1---|          e|---------------------------------------------| 
B|--1--1--1--1---3--3--3--3---|          B|---------------------------------------------| 
G|--0--0--0--0---2--2--2--2---| x3       G|---------------------------------------------| 
D|--2--2--2--2---0--0--0--0---|          D|--5-5-5-5-5-5-6-6-7-7-7-7-7-7-7-7------------| 
A|--3--3--3--3---x--x--x--x---|          A|--5-5-5-5-5-5-6-6-7-7-7-7-7-7-7-7------------| 
D|--x--x--x--x---x--x--x--x---|          E|--5-5-5-5-5-5-6-6-7-7-7-7-7-7-7-7------------| 


Chorus+Outro 

e|----------------------------------------------------------------------------------------| 
B|----------------------------------------------------------------------------------------| 
G|-----0h2----------------0h2-----------------0h2-----------------------------------------|  x7 
D|---------2--0-----0---------2--0------0----------2--0-----0--------5----------3---------| 
A|---------2----0h3-----------2----0h3-------------2----0h3--------5---5------3-----------| 
D|---0--------------0h3-0---------------0h3-0---------------0h3--5-------5--3-----0h3-----| 


************************************ 
| x   Dead note 
| h   Hammer-on 
************************************ 
		  

See also:

tabs Deep Purple - Highway Star tabs Deep Purple - Smoke On The Water (Easy Intro) tabs Deep Purple - Space Truckin tabs Deep Purple - Rat Bat Blues tabs Deep Purple - Smoke On Water (ver. 2) tabs Deep Purple - Lazy
e-chords

Other versions:

tabs Larkin Poe - When God Closes A Door
auto scroll beats size up size down change color hide chords drawings
tab show chords e-chords YouTube Clip e-chords hide all tabs e-chords go to top tab

share