Lacuna Coil

home > Lacuna Coil

You Love Me Cause I Hate You Tab

Lacuna Coil

Difficulty: nolevelnolevel

by carlluz

tuner correct add songbook print version text version save to e-mail
chordsukulelecavacokeyboardtabbassdrumsharmonicsflute Guitar Pro
chords

You Love Me Cause I Hate You

  		
Verse 

C |------------------------------------------------------| 
G |------------------------------------------------------| 
D#|-----4--4-4-4--4-4------------------------------------| 
A#|--------------------hear the song for the rythm-------| 
F |-2--2--------2----------------------------------------| 
A#|------------------------------------------------------| 

   
Chorus 
  
C |---------------------------------|   |---------------------------------| 
G |---------------------------------|   |---------------------------------| 
D#|---------------------------------|   |---------------------------------| 
A#|-9-9-9-9-4-4-4-4-0-0-0-0-8-8-8-8-|   |-9-9-9-9-4-4-4-4-0-0-0-0-4-4-4-4-| 
F |-9-9-9-9-4-4-4-4-0-0-0-0-8-8-8-8-|   |-9-9-9-9-4-4-4-4-0-0-0-0-4-4-4-4-| 
A#|-9-9-9-9-4-4-4-4-0-0-0-0-8-8-8-8-|x3 |-9-9-9-9-4-4-4-4-0-0-0-0-4-4-4-4-| 
                                          not sure about the last chord 

Verse 

Chorus 

   
Bridge 

C |------------------------------------------------------------| 
G |------------------------------------------------------------| 
D#|------------------------------------------------------------| 
A#|-2--------0--------9---------2--------0--------9-----9~~~---|     
F |-2--------0--------9---------2--------0--------9-----9~~~---|     
A#|-2-x8-----0-x8-----9-x16-----2-x8-----0-x8-----9-x16-9~~~---|  


Chorus x2 

   
End 

C |------| 
G |------| 
D#|------| 
A#|-9~~~-| 
F |-9~~~-| 
A#|-9~~~-| 


  Note : you can play  
C |---------------------------------|    |---------------------------------|   
G |---------------------------------|    |---------------------------------|   
D#|---------------------------------|    |-4-4-4-4-----------------3-3-3-3-|   
A#|-9-9-9-9-4-4-4-4-0-0-0-0-8-8-8-8-|    |-4-4-4-4-4-4-4-4-0-0-0-0-3-3-3-3-| 
F |-9-9-9-9-4-4-4-4-0-0-0-0-8-8-8-8-|    |-2-2-2-2-4-4-4-4-0-0-0-0-1-1-1-1-| 
A#|-9-9-9-9-4-4-4-4-0-0-0-0-8-8-8-8-| by |---------4-4-4-4-0-0-0-0---------| 



************************************ 

| x  Dead note 
| ~  Vibrato 

************************************ 
	  

Search Paypal
auto scroll beats size up size down change color hide chords drawings
tab show chords e-chords YouTube Clip e-chords hide all tabs e-chords go to top tab