La renga

home > La renga

Oscuro Diamante Tab

La renga

Difficulty: nolevelnolevel

by NiKKolito

tuner correct add songbook print version text version save to e-mail
chordsukulelecavacokeyboardtabbassdrumsharmonicsflute Guitar Pro
chords

Oscuro Diamante

  		Oscuro Diamante. La Renga!! 

 /-------------------------------- 
 /-------------------------------- 
 /---3-4-------------4/7----------  X4 
 /--3-4----2-2-2-2--4/7----------- 
 /-2-3----2-2-2-2--3/5------------ 
 /-------0-0-0-0------------------ 

 /---------------------------------------0-7~------ 
 /-----------------------------------7p8------7p8-- 
 /--------------------------------9---------------- 
 /----4444-3333----2-2---------9------------------- 
 /---4444-3333----2-2-------7---------------------- 
 /--3333-2222---0-0-------------------------------- 

 /--------------------------0-8--10------------------------------------------- 
 /----------------------8p9---------11~~-13-11~--9p11b9~-14-13-9-11-9p8b9~~~-- 
 /----3--3----------10-------------------------------------------------------- 
 /---3--3-------10------------------------------------------------------------ 
 /--2--2-----8---------------------------------------------------------------- 
 /---------------------------------------------------------------------------- 

  MIm5- Dom5- Sol5- Rem5- x2 Estribillo 

/-----------------------------------0-7~--- 
 /----------------------------7p8------7p8- 
 /------------------------9---------------- 
 /--------2-2---------9-------------------- 
 /-------2-2-------7----------------------- 
 /-----0-0--------------------------------- 

 /--------------------------0-8--10------------------------------------------- 
 /----------------------8p9---------11~~-13-11~--9p11b9~-14-13-9-11-9p8b9~~~-- 
 /----3--3----------10-------------------------------------------------------- 
 /---3--3-------10------------------------------------------------------------ 
 /--2--2-----8---------------------------------------------------------------- 
 /---------------------------------------------------------------------------- 

  
   MIm5- Dom5- Sol5- Rem5- x2 Estribillo 

 Solo de Saxo 

 durante el solo de Saxo 
  
 /--------------------------------       
 /-------------------------------- 
 /---3-4-------------4/7----------  X4    
 /--3-4----2-2-2-2--4/7----------- 
 /-2-3----2-2-2-2--3/5------------       DURANTE EL SOLO DE SAXO 
 /-------0-0-0-0------------------ 

 MIm5- Dom5- Sol5- Rem5- x2 

 MIm5- Dom5- Sol5- Rem5- x2 DURANTE EL CANTO 

 /---------------------------------0-7~--------- 
 /----------------------------7p8------7p8--8~~/1- 
 /------------------------9----------------------- 
 /--------2-2---------9-------------------------- 
 /-------2-2-------7----------------------------- 
 /-----0-0--------------------------------------- 

  fin del tema!!! nose si esta bien sakado pero ami me suena muy bien, tarte de seguir  
  Las escalas del tema y todo je!!... Niko 
	  

Search Paypal
auto scroll beats size up size down change color hide chords drawings
tab show chords e-chords YouTube Clip e-chords hide all tabs e-chords go to top tab