La Liga del Sueño

Semilla Negra

La Liga del Sueño

tabs

save to print version add songbook text version e-mail correct tuner
chordsukulelecavacokeyboardtabbassdrumsharmonicaflute Guitar Pro
close

there isn't a video lesson for this song

chords

Semilla Negra

	  		AQUI LES DEJO LA MEJOR PARTITURA Q HE CONSEGUIDO DE ESTE 
GRAN BANDA PERUANA Y SONARIA MEJOR SI UBIERA ALGUNA  
PERCUSION DE ACOMPAÑAMIENTO  



     |------------------------------------------------------ 
     |------------------------------------------------------ 
     |------------------------------------------------------ 
     |---------3-s-4-3-----3-------------------------------- 
     |-----3-6---------6-4---6-4-3--4-s-6-4-3--------------- 
     |---3------------------------------------3------------- 

     (SOL# MAYOR)        
      
     |------------------------------------------------------ 
     |------------------------------------------------------ 
     |------------------------------------------------------ 
     |---------3-s-4-3-----3-------------------------------- 
     |-----3-6---------6-4---6-4-3--4-s-6-4-3--------------- 
     |---3------------------------------------3------------- 

     (SOL# MAYOR)        

     
      
     (SOL# MAYOR)(todo la letra al estilo de 'reggea') 
     ese beso entregado al aire es para ti 
     fruta q has de comer mañana 
     guarda la semilla por q estoy en el  
     y hazme crecer en una tierra lejana 
     si me llevas contigo 
     prometo ser ligero como la brisa  
     y decirte al oido  
     secretos q haran brotar tu risa  
     risa 

     |------------------------------------------------------ 
     |------------------------------------------------------ 
     |------------------------------------------------------ 
     |---------3-s-4-3-----3-------------------------------- 
     |-----3-6---------6-4---6-4-3--4-s-6-4-3--------------- 
     |---3------------------------------------3------------- 

     esos ojos detras del cristal 
     son dos negros cautivos cruzando el mar 
     por la noche estare solo en la selva 
     q voy hacer 
     esperando a q vuelvas 

     si me llevas contigo 
     prometo ser ligero como la brisa  
     y decirte al oido  
     secretos q haran brotar tu risa  
     risa 


     |------------------------------------------------------ 
     |------------------------------------------------------ 
     |------------------------------------------------------ 
     |---------3-s-4-3-----3-------------------------------- 
     |-----3-6---------6-4---6-4-3--4-s-6-4-3--------------- 
     |---3------------------------------------3------------- 

   
     |------------------------------------------------------ 
     |------------------------------------------------------ 
     |------------------------------------------------------ 
     |------------3-----3-s-4-4-4-4-6----------------------- 
     |--4-s-6-6-6------------------------------------------- 
     |------------------------------------------------------       


     |------------------------------------------------------ 
     |------------------------------------------------------ 
     |------------------------------------------------------ 
     |---------3-s-4-3-----3-------------------------------- 
     |-----3-6---------6-4---6-4-3--4-s-6-4-3--------------- 
     |---3------------------------------------3------------- 

   
     |------------------------------------------------------ 
     |------------------------------------------------------ 
     |------------------------------------------------------ 
     |------------3-----3s4-4-4-4-6------------------------ 
     |--4s6-6-6--------------------------------------------- 
     |------------------------------------------------------ 

       
     |------------------------------------------------------ 
     |---6-6-4-6-4------------------------------------------ 
     |------------------------------------------------------ 
     |-------------6---------------------------------------- 
     |------------------------------------------------------ 
     |------------------------------------------------------ 

      yo tengo un pensamiento vagabundo 
      voy a seguir tus pasos por el mundo 
      al ver q tu ya no estas aqui 
      te seguire 
      por la materia q me une a ti 
      por la materia q me une a ti 

      semilla negra 

     |------------------------------------------------------ 
     |------------------------------------------------------ 
     |---3s4--------------------------------------------------- 
     |-------4----------------------------------------------- 
     |------------------------------------------------------ 
     |------------------------------------------------------ 

      
      semilla negra 

     |------------------------------------------------------ 
     |------------------------------------------------------ 
     |---3s4------------------------------------------------ 
     |-------4---------------------------------------------- 
     |------------------------------------------------------ 
     |------------------------------------------------------ 

     y en un barquito de ensueño  
     alcanzaremos la semilla 
     plantaremos la semilla en una tiera sin dueño 
     llevare,llevare ,llevare pa´ alla..... 
     ya me voy,ya me voy ..... 

     semilla negra 
     semilla negra...... 

       
      
     |----------------------------------------4------------- 
     |----------------------------------------4------------- 
     |----------------------------------------5------------- 
     |---------3-s-4-3-----3------------------6------------- 
     |-----3-6---------6-4---6-4-3--4-s-6-4-3-6------------- 
     |---3------------------------------------4------------- 

lacuerda.net
		  

See also:

tabs La Liga del Sueño - Semilla Negra
e-chords

Other versions:

tabs La Liga del Sueño - Semilla Negra
auto scroll beats size up size down change color hide chords drawings
tab show chords e-chords YouTube Clip e-chords hide all tabs e-chords go to top tab

share