Kreator

Inferno

Kreator

tabs

by  BINBAGS

save to print version add songbook text version e-mail correct tuner
chordsukulelecavacokeyboardtabbassdrumsharmonicaflute Guitar Pro
close

there isn't a video lesson for this song

chords

Inferno

	  		Tunning D G C F A D 
  
 
 Intro 
 
 
           ~~~~~~~~           ~~~  h 
E------------------------------------| 
B------------------------------------| 
G------------------------------------| 
D----------9----------------9p7--7-9-| 
A---7-10p7-----------7-10p7----------| 
E-0----------------0-----------------| 
 
  Guitar 1 
                        Pick scrape 
E{-----------------------------------| 
B{-----------------------------------| 
G{-----------------------------------| 
D{---------------------------\-\-----| 
A{----------------------------\-\----| 
E{-----------------------------------| 
 {Guitar 2 
 {          ~~~~~~~           ~~~  h 
E{-----------------------------------| 
B{-----------------------------------| 
G{-----------------------------------| 
D{----------9---------------9p7--7-9-| 
A{---7-10p7----------7-10p7----------| 
E{-0---------------0-----------------| 
 
 Main Riff 
 
 
  Guitar 1 
    {-----PM------}  {------PM------} 
E{-----------------------------------| 
B{-----------------------------------| 
G{-----------------------------------| 
D{-2----------------7----------------| 
A{-2----------------55555555555557/9-| 
E{-0000000000000000--------------5/7-| 
 { 
 {Guitar 2 
 {          ~~~~~~~           ~~~  h 
E{-----------------------------------| 
B{-----------------------------------| 
G{-----------------------------------| 
D{----------9---------------9p7--7-9-| 
A{---7-10p7----------7-10p7----------| 
E{-0---------------0-----------------| Rpt 
 
  
 Verse 
 
E--------------------------------------------| 
B----------------------3--------(3)----------| 
G----------------------2--------(2)----------| 
D-2--------(2)---------0--------(0)-----2-4--| 
A-2--------(2)--------------------------0-2--| 
E-0--------(0)-------------------------------| Rpt 
 
 Bridge 
                                           {PM} 
E-----------------------------------------------| 
B-----------------------------------------------| 
G-----------------------------------------------| 
D/5-5--(5)--5-5--(5)-\4-4--(4)--4-4--(4)--4---4-| 
A/3-3--(3)--3-3--(3)-\2-2--(2)--2-2--(2)--2p0-2-| 
E-----------------------------------------------| 
 
                                {--PM--}                                            
E---------------------------------------| 
B---------------------------------------| 
G---------------------------------------| 
D/5-5--(5)--5-5--(5)-\4-4--(4)--222-----| 
A/3-3--(3)--3-3--(3)-\2-2--(2)--000-333-| 
E-----------------------------------111-| 
 
 Rpt Main Riff 2 X for Chorus. 
 Rpt Verse, Bridge and Chorus. 
 
 {----------PM-----------} 
E--------------------------| 
B--------------------------| 
G--------------------------| 
D-555555555555555555555555-| 
A-333333333333333333333333-| 
E--------------------------| 
 
E-------------------------------------------| 
B-------------------------------------------| 
G-------------------------------------------| 
D-2--------(2)--------7--------(7)----------| 
A-2--------(2)--------5--------(5)----------| 
E-0--------(0)------------------------------| 
 
                 Fade out to bass and drums 
E-------------------------------------------| 
B-------------------------------------------| 
G-------------------------------------------| 
D-2--------(2)------------------------------| 
A-2--------(2)------------------------------| 
E-0--------(0)------------------------------| 
 
  Fade in. 
E-------------------------------------------| 
B-------------------------------------------| 
G-------------------------------------------| 
D-2--------(2)--------7--------(7)----------| 
A-2--------(2)--------5--------(5)----------| 
E-0--------(0)------------------------------| 
 
 Rpt Chorus 2 X 
 
 {----------PM-----------} 
E--------------------------| 
B--------------------------| 
G--------------------------| 
D-555555555555555555555555-| 
A-333333333333333333333333-| 
E--------------------------| 
 
  Guitar 1 
    
E{-----------------------------------| 
B{-----------------------------------| 
G{-----------------------------------| 
D{-2-2----(2)------7-7----(7)--------| 
A{-2-2----(2)------5-5----(5)----7/7-| 
E{-0-0----(0)--------------------5/7-| 
 { 
 {Guitar 2 
 {          ~~~~~             ~~~  h 
E{-----------------------------------| 
B{-----------------------------------| 
G{-----------------------------------| 
D{----------9---------------9p7--7-9-| 
A{---7-10p7----------7-10p7----------| 
E{-0---------------0-----------------| Rpt 
 
 
E-------------------------------------------------------------------| 
B-------------------------------------------------------------------| 
G-9--------------------------(9)------------------------------------| 
D-9--------------------------(9)------------------------------------| 
A-7--------------------------(7)------------------------------------| 
E-------------------------------------------------------------------| 
 
 
 
 
END 
 
 

		  

See also:

tabs Kreator - Nonconformist tabs Kreator - Under The Guillotine tabs Kreator - Awakening Of The Gods tabs Tankard - G.A.L.O.W. tabs Kreator - Flag Of Hate tabs Kreator - Some Pain Will Last
e-chords

Other versions:

tabs Kreator - Inferno tabs Nasty Savage - Inferno tabs Symphony X - Inferno (Unleash The Fire) tabs Shaman - Inferno Veil
auto scroll beats size up size down change color hide chords drawings
tab show chords e-chords YouTube Clip e-chords hide all tabs e-chords go to top tab

share