Kreator

Voices Of The Dead

Kreator

tabs Beginner beginner

by  VELHO

save to print version add songbook text version e-mail correct tuner
chordsukulelecavacokeyboardtabbassdrumsharmonicaflute Guitar Pro
close

there isn't a video lesson for this song

chords

Voices Of The Dead

	  		afinacion:  D A D G B E 

intro/acustico 


  |--------------------------------------------| 
  |--------------------------------------------| 
  |--------------------------------------------| 
  |---0------------------0---------------------| 
  |---0-3-0-----------0--0-3-0-----------------| 
  |---0-----5-0-3-0------0----5-0-3/5-0--------| 


  |--------------------------------------------| 
  |--------------------------------------------| 
  |--------------------------------------------| 
  |--------------------------------------------| 
  |--0------------0-0--------------------------| 
  |--3--5/7-3-0---3-5--7/8-10-5----------------| 
esta primera parte del intro se repite x2 

segunda parte del intro aun en acustico 

  |--------------------------------------------| 
  |--------------------------------------------| 
  |-----------------7--------------------------| 
  |-------------7-----7---7--------------------|   x 16 
  |-----------5---5-----5----------------------| 
  |---------0----------------------------------| 

despues de esto entra la distorcion 

nota los tonos al aire llevan pal mut ok 

intro/distorcion 
  |--------------------------------------------| 
  |--------------------------------------------| 
  |--------------------------------------------| 
  |------7/5---5/3----3/2--3-2-----------------| x3 
  |---------------------------3----------------| 
  |--00------0------0--------------------------| 

  |--------------------------------------------| 
  |--------------------------------------------| 
  |--------------------------------------------| 
  |------7/5-5-7-8--7--8--10-8/10/8------------| 
  |--------------------------------------------| 
  |--00----------------------------------------| 

parte uno despues del intro/distorcion 

  |--------------------------------------------| 
  |--------------------------------------------| 
  |--------------------------------------------|   x2 
  |----2/3---2/0---2-0-------------------------| 
  |--------------------3--5--3--0--------------| 
  |-00-----0-----------------------------------| 


  |---------------------------------------------------------------------| 
  |---------------------------------------------------------------------| 
  |---------------------------------------------------------------------| 
  |----10/8---8/7----7/5--7/10-10-10--8-10/12-10 12/15--12-15/17-151715-| 
  |---------------------------------------------------------------------| 
  |-00------0------0----------------------------------------------------| 

 esta parte mas adelante en la cancion se repite otra vez 

verso 1 
  |-------------------------------------------------| 
  |-------------------------------------------------| 
  |-------------------------------------------------| 
  |--2-----3-----2----------------------------------| 
  |--2-----3-----2----------------------------------| 
  |--2-000-3-000-2-00--000-000-000------------------| 


  |----------------------------------------------------| 
  |----------------------------------------------------| 
  |----------------------------------------------------| 
  |--2-----3-----2-----0---5--7-8-7--------------------| 
  |--2-----3-----2-----0---5--7-8-7--------------------| 
  |--2-000-3-000-2-----0---5--7-8-7--------------------| 

estas dos primeras partes se repiten constantemente hasta el cambio de la cancion en ese  
orden 


  hojo esto lo hace la primera lira 
  |--------------------------------------------| 
  |--------------------------------------------| 
  |--------------------------------------------| 
  |--0----8----3--2----------------------------|x 8 
  |--0----8----3--2----------------------------| 
  |--0----8----3--2----------------------------| 

segunda lira 

  |--------------------------------------------| 
  |-----------11---------10--------------------| 
  |--7--10--7-----10--7------10----------------| 
  |--------------------------------------------|   x3 
  |--------------------------------------------| 
  |--------------------------------------------| 

  |--------------------------------------------| 
  |--------------------------------------------| 
  |--12--10-9-10--9--7--5----------------------| 
  |--------------------------------------------| 
  |--------------------------------------------| 
  |--------------------------------------------| 

  |--------------------------------------------| 
  |-----------11---------10--------------------| 
  |--7--10--7-----10--7------10----------------| 
  |--------------------------------------------|   x3 
  |--------------------------------------------| 
  |--------------------------------------------| 

  |--------------------------------------------| 
  |-13--11--10--11--10--8--6-------------------| 
  |--------------------------------------------| 
  |--------------------------------------------| 
  |--------------------------------------------| 
  |--------------------------------------------| 


despues de esto se repite todo una vez mas desde la parte uno despues del intro acustico  
pasar despues al verso 2 


verso 2 

  |--------------------------------------------| 
  |--------------------------------------------| 
  |--------------------------------------------| 
  |--------------0--1--3--5--------------------|    x2 
  |--------------0--1--3--5--------------------| 
  |-000000000000-0--1--3--5--------------------| 


  |--------------------------------------------| 
  |--------------------------------------------| 
  |--------------------------------------------| 
  |-0-0-3-0-2/0--0-1-0-000--1/3----------------|x3 
  |-0-0-3-0-2/0--0-1-0-000--1/3----------------| 
  |-0-0-3-0-2/0--0-1-0-000--1/3----------------| 

  |--------------------------------------------| 
  |--------------------------------------------| 
  |--------------------------------------------| 
  |--0-0-3-0-2--00-----------------------------| 
  |--0-0-3-0-2--00-----------------------------| 
  |--0-0-3-0-2--00---87--565--353--------------| 


des pues de sto biene el solo pero ese se los debo lo unico que se es q el principio de  
es similar a la segunda guitarra en la parte aguda solo q el solo es con efectos wa  
en ello ok 

esta es la lira q va por debajo del solo 

  |----------------------------------------------------------| 
  |----------------------------------------------------------| 
  |----------------------------------------------------------| 
  |--0--6--5--3--0--3---------6---5---3----------6---5---3---| 
  |--0--6--5--3--0--3---------6---5---3----------6---5---3---| 
  |--0--6--5--3--0--3---0-000-6-0-5-0-3---0-000--6-0-5-0-3---| 

para que encuentres bien los tiempos te recomiendo escuchar la cancion bien, te sera muy  
sacarla si la estas escuchando 


la parte q sigue es bastante rapida sirve como enlace y como el final de la cancion ok 


  |--------------------------------------------| 
  |--------------------------------------------| 
  |--------------------------------------------| 
  |----------------------0---------------------| 
  |----------------------0---------------------| 
  |--321-0321-0543-0543--0---------------------| 


no es exacta pero les ayudara a sacar la cancion 
estas son las bases de la partitura depende ya de ustedes y de su oido musical ok 

cualquier duda al correo   * 

 Diego VR........ 
		  

Full key step upFull key step up
Half key step upHalf key step up
Half key step downHalf key step down
Full key step downFull key step down
hide glossary

See also:

tabs Kreator - Nonconformist tabs Kreator - Under The Guillotine tabs Kreator - Awakening Of The Gods tabs Tankard - G.A.L.O.W. tabs Kreator - Flag Of Hate tabs Kreator - Some Pain Will Last
e-chords

Other versions:

tabs Kreator - Voices Of The Dead
auto scroll beats size up size down change color hide chords drawings
tab show chords e-chords YouTube Clip e-chords hide all tabs e-chords go to top tab

share