Kreator

PEOPLE OF THE LIE

Kreator

tabs Advanced advanced

by  MATRIZARROJITO

save to print version add songbook text version e-mail correct tuner
chordsukulelecavacokeyboardtabbassdrumsharmonicaflute Guitar Pro
close

there isn't a video lesson for this song

chords

PEOPLE OF THE LIE

Year: 1991 - Album: Live Kreation

	  		|--------------------------------|------------------------------------------------| 
|--------------------------------|------------------------------------------------| 
|--------------------------------|-------------5------7---------------------------| 
|-4-3-6----------2-3-----2--4-5--|-4-4-4-5-(5)----5-------5-4------4-3------------| 
|-2-1-4--2---(2)------5----------|-2-2-2-3-(3)------------3-2------2-1------2-(2)-| 
|--------0---(0)-----------------|----------------------------0000-----0000-0-(0)-| 
. . . . . . .... .... 
 
 
|-----------------------|---------------------------------------------| 
|-----------------------|---------------------------------------------| 
|-----------------------|----------------5------7---------------------| 
|-------2-3-----2--4-5--|-4-4-4-5-(5)-------5------5-4----------------| 
|-(2)--------5----------|-2-2-2-3-(3)--------------3-2------2-(2)-(2)-| 
|-(0)-------------------|------------------------------0000-0-(0)-(0)-| 
. . . .... 
 
 
RIFF 1 
|-----------------------------------------|-----------------------------------------| 
|-----------------------------------------|-----------------------------------------| 
|-----------------------------------------|-----------------------------------------| 
|----------------4/5----------------------|----------------4/5----------------------| 
|-2----3---------2/3---3-2----------------|-2----3---------2/3---3-2-------33333333-| 
|-0-00-1-0000000-----0-1-0-00000000000000-|-0-00-1-0000000-----0-1-0-00000011111111-| 
.. ....... . .............. .. ....... . .............. 
 
 
 
|-----------------------------------------| 
|-----------------------------------------|(PLAY 4 TIMES) 
|-----------------------------------------| 
|----------------4/5----------------------| 
|-2----3---------2/3---3-2----------------| 
|-0-00-1-0000000-----0-1-0-00000000000000-| 
.. ....... . .............. 
 
 
RIFF 2 - Chorus 
|--------------------| 
|--------------------|GTRS 1& 2 
|--------------------| 
|-----------4--------| 
|-2----5----2----4-3-| 
|-0----3---------2-1-| 
 
REPEAT VERSE 1 (4 TIMES) 
REPEAT Chorus 
 
RIFF 3 - BRIDGE 
|-----------------------------------------------------| 
|-----------------------------------------------------| 
|-----------------------------------------------------| 
|-----------------------------------------------------| 
|-4---------------7---------------7-6---------------9-| 
|-2-2222222222222-5-5555555555555-5-4-4444444444444-7-| 
............. ............. ............. 
 
DRUM FILL 
 
RIFF 4 - UNDER SOLO 
|---------------------------------------------------------------------------------------| 
|---------------------------------------------------------------------------------------| 
|---------------------------------------------------------------------------------------| 
|-------------------6\5----------------------------------------6\5----------------------| 
|-5----6------------4\3---6-5----------------5----6------------4\3---6-5----------------| 
|-3-33-4-3333333333-----3-4-3-33333333333333-3-33-4-3333333333-----3-4-3-33333333333333-| 
.. .......... . .............. .. .......... . .............. 
 
 
|---------------------------------------------------------------------------------------| 
|---------------------------------------------------------------------------------------| 
|-------------------5\4----------------------------------------5\4----------------------| 
|-4----5------------3\2---5-4----------------4----5------------3\2---5-4----------------| 
|-2-22-3-2222222222-----2-3-2-22222222222222-2-22-3-2222222222-----2-3-2-22222222222222-| 
|---------------------------------------------------------------------------------------| 
.. .......... . .............. .. .......... . .............. 
 
 
|---------------------------------------------------------------------------------------| 
|---------------------------------------------------------------------------------------| 
|-------------------8\7----------------------------------------8\7----------------------| 
|-7----8------------6\5---8-7----------------7----8------------6\5---8-7----------------| 
|-5-55-6-5555555555-----5-6-5-55555555555555-5-55-6-5555555555-----5-6-5-55555555555555-| 
|---------------------------------------------------------------------------------------| 
.. .......... . .............. .. .......... .............. 
 
 
 
______ ___ 
RIFF 5 (PLAY 4 TIMES) |1,2,3 |4 
|--------------------------------|------| 
|--------------------------------|------| 
|--------------------------------|------| 
|------------------------------9-|------| 
|----7-8-10-8----7-8-10-8-887----|-887\-| 
|-00----------00-----------------|------| 
 

		  

See also:

tabs Kreator - Under The Guillotine tabs Tankard - G.A.L.O.W. tabs Kreator - Bomb Threat tabs Kreator - Death To The World tabs Kreator - Betrayer tabs Kreator - Enemy Of God
e-chords

Other versions:

tabs Kreator - PEOPLE OF THE LIE
auto scroll beats size up size down change color hide chords drawings
tab show chords e-chords YouTube Clip e-chords hide all tabs e-chords go to top tab

share