Kittie

In Winter

Kittie

tabs Easy easy

save to print version add songbook text version e-mail correct tuner
chordsukulelecavacokeyboardtabbassdrumsharmonicaflute Guitar Pro
close

there isn't a video lesson for this song

chords

In Winter

	  		 
Tuning: 
 
6=C 3=F 
5=G 2=A  
4=C 1=D 
 
palm muted  
d|-------------------------------|   
a|-------------------------------|   
f|-------------------------------|   
c|--222222---2222---2------------|   
g|--222222---2222---2------------|   
c|--222222---2222---2------------|   
    ^^^^^^   ^^^^   ^  
      
listen for rhythm  
 
 
verse  all palm muted  
 
d|---------------------------------------------|   
a|---------------------------------------------|   
f|---------------------------------------------|  
c|--222222--2222----2--------000000----0000--0-|   
g|--222222--2222----2--------000000----0000--0-|   
c|--222222--2222----2--------000000----0000--0-|    
 
 
 
2nd guitar  
 
d|---------------------|   
a|---------------------|   
f|13---------14--------|  
c|---------------------|   
g|11---------12--------|   
c|---------------------|  
 
 
pre chorus  
 
 
d|----------------------------|   
a|----------------------------|   
f|----------------------------|  
c|--7--0-0-0-2s7--------------|   
g|--7--0-0-0-2s7--22222s7-----|   
c|--7--0-0-0-2s7--22222s7-----|    
     ^^^^  
 
chorus  
 
d|---------------------|   
a|---------------------|   
f|---------------------|  
c|-2s7777777-0---------|   
g|-2s7777777-0---------|   
c|-2s7777777-0---------|    
 
 
 
bridge  
 
d|--------------------------------------------|   
a|--------------------------------------------|   
f|--------------------------------------------|  
c|2222222-0-222222--77777777--022222222-------|   
g|2222222-0-222222--77777777--022222222-------|   
c|2222222-0-222222--77777777--022222222-------| 
 
_______________________________________________________ 
Contribuição: Laís Microni([email protected]) 

		  

See also:

tabs Ozzy Osbourne - Paranoid (solo) tabs Iron Maiden - Infinite Dreams tabs Judas Priest - Painkiller tabs Bruce Dickinson - Tears Of The Dragon (ver. 3) tabs Black Sabbath - Paranoid Guitar (Solo) tabs Iron Maiden - Hallowed Be Thy Name
e-chords

Other versions:

tabs Kittie - In Winter
auto scroll beats size up size down change color hide chords drawings
tab show chords e-chords YouTube Clip e-chords hide all tabs e-chords go to top tab

share