Keith Harling

Three Words Away

Keith Harling

tabs

save to print version add songbook text version e-mail correct tuner
chordsukulelecavacokeyboardtabbassdrumsharmonicaflute Guitar Pro
close

there isn't a video lesson for this song

chords

Three Words Away

	  		Intro 
Capo I Fret 
 
E---------------------------------------------------------------------------------------------------- 
B---------------------------------------------------------------------------------------------------- 
G--------------0-----------------------------------0------------------------------0------------------ 
D----------0-------4---2---0-------------------------4---2---0-------------------4---2---0-----0----- 
A------------------------------------0----2----------------------------2---3----------------------3-- 
E-----3---------------------------------------------------------------------------------------------- 
 
 
E-------------------------------------- 
B-------------------------------------- 
G------0------------------------------- 
D------------4---2---0----------------- 
A----------------------------3s5------- 
E-----------------------------------3--
		  

See also:

tabs Dueling Banjos - Dueling Banjos tabs John Denver - Sunshine On My Shoulders tabs Garth Brooks - The Dance - Fingerstyle tabs Albert Lee - Country Boy tabs Bluegrass - You Are My Sunshine tabs Lester Flatt - Dueling Banjos
e-chords

Other versions:

tabs Keith Harling - Three Words Away
auto scroll beats size up size down change color hide chords drawings
tab show chords e-chords YouTube Clip e-chords hide all tabs e-chords go to top tab

share