Katatonia

Stalemate

Katatonia

tabs

by  ROBEPOIEL

save to print version add songbook text version e-mail correct tuner
chordsukulelecavacokeyboardtabbassdrumsharmonicaflute Guitar Pro
close

there isn't a video lesson for this song

chords

Stalemate

	  		

(Intro) 4x                                                 Gt. 1 
E----------------------------------------------------------------| 
B----------------------------------------------------------------| 
G--5-5-555-5-5---7-7------5-5-555-5-5---7-7----------------------| 
D--5-5-555-5-5---7-7------5-5-555-5-5---7-7----------------------| 
A--3-3-333-3-3---5-5------3-3-333-3-3---5-5----------------------| 
E----------------------------------------------------------------| 
       ...                    ...                                | 
Gt. 2 comes in after Gt. 1 plays intro 1x               3x GT. 2  
E----------------------------------------------------------------| 
B----------------------------------------------------------------| 
G--5-5-555-5-5---7-7------5-5-555-5-5---5-5----------------------| 
D--5-5-555-5-5---7-7------5-5-555-5-5---7-7----------------------| 
A--3-3-333-3-3---5-5------3-3-333-3-3---3-3----------------------| 
E----------------------------------------------------------------| 
       ...                    ...                                | 
                                                           Gt. 3 
E----------------------------------------------------------------|| 
B----------------------------------------------------------------|| 
G--7b-7b-7b-7b-7b-7b-7b-7b-7b-7b-7b-7b-7b-7b-7b-7b---------------|| 
D----------------------------------------------------------------|| 
A----------------------------------------------------------------|| 
E----------------------------------------------------------------|| 

(Verse) 2x                                             Gt. 1 & 2 
E----------------------------------------------------------------| 
B----------------------------------------------------------------| 
G---------7-7---4-4-4-4-4-4-4-4----------------------------------| 
D--8-88---7-7---4-4-4-4-4-4-4-4----------------------------------| 
A--8-88---5-5---2-2-2-2-2-2-2-2----------------------------------| 
E--6-66----------------------------------------------------------| 
     ..                                                          | 
                                                                 | 
                                                           Gt. 3 
E----------------------------------------------------------------|| 
B--3---7-7---5~~---------3---7-7---5~~---------------------------|| 
G----------------------------------------------------------------|| 
D----------------------------------------------------------------|| 
A----------------------------------------------------------------|| 
E----------------------------------------------------------------|| 

(Intro Riff)                                        6x Gt. 1 & 2 
E----------------------------------------------------------------| 
B----------------------------------------------------------------| 
G--5-5-555-5-5---7-7------5-5-555-5-5---7-7----------------------| 
D--5-5-555-5-5---7-7------5-5-555-5-5---7-7----------------------| 
A--3-3-333-3-3---5-5------3-3-333-3-3---5-5----------------------| 
E----------------------------------------------------------------| 
       ...                    ...                                | 
                                                                 | 
Comes in during Gt 1&2's 3rd time                          Gt. 3 
E----------------------------------------------------------------|| 
B----------------------------------------------------------------|| 
G--7b-7b-7b-7b-7b-7b-7b-7b-7b-7b-7b-7b-7b-7b-7b-7b---------------|| 
D----------------------------------------------------------------|| 
A----------------------------------------------------------------|| 
E----------------------------------------------------------------|| 


(Verse) 2x                                             Gt. 1 & 2 
E----------------------------------------------------------------| 
B----------------------------------------------------------------| 
G---------7-7---4-4-4-4-4-4-4-4----------------------------------| 
D--8-88---7-7---4-4-4-4-4-4-4-4----------------------------------| 
A--8-88---5-5---2-2-2-2-2-2-2-2----------------------------------| 
E--6-66----------------------------------------------------------| 
     ..                                                          | 
                                                                 | 
                                                           Gt. 3 
E----------------------------------------------------------------|| 
B--3---7-7---5~~-----------3---7-7---5~~-------------------------|| 
G----------------------------------------------------------------|| 
D----------------------------------------------------------------|| 
A----------------------------------------------------------------|| 
E----------------------------------------------------------------|| 

(Chorus) 2x 
E----------------------------------------------------------------| 
B----------------------------------------------------------------| 
G--5-5-5-5-5-------5-5-------------------------------------------| 
D--5-5-5-5-5--6-6--5-5--6-6-6-6-6-6-6-6-6-6-6-6-6-6--------------| 
A--3-3-3-3-3--6-6--3-3--6-6-6-6-6-6-6-6-6-6-6-6-6-6--------------| 
E-------------4-4-------4-4-4-4-4-4-4-4-4-4-4-4-4-4--------------|  
                                                       Gt. 1 & 2 
E----------------------------------------------------------------|| 
B----------------------------------------------------------------|| 
G----------------------------------------------------------------|| 
D--5--5-5-5-5-5-5-5----------------------------------------------|| 
A--5--5-5-5-5-5-5-5----------------------------------------------|| 
E--3--3-3-3-3-3-3-3----------------------------------------------|| 


(Intro Riff)                                        6x Gt. 1 & 2 
E----------------------------------------------------------------| 
B----------------------------------------------------------------| 
G--5-5-555-5-5---7-7------5-5-555-5-5---7-7----------------------| 
D--5-5-555-5-5---7-7------5-5-555-5-5---7-7----------------------| 
A--3-3-333-3-3---5-5------3-3-333-3-3---5-5----------------------| 
E----------------------------------------------------------------| 
       ...                    ...                                | 
                                                                 | 
Comes in during Gt 1&2's 3rd time                          Gt. 3 
E----------------------------------------------------------------|| 
B----------------------------------------------------------------|| 
G--7b-7b-7b-7b-7b-7b-7b-7b-7b-7b-7b-7b-7b-7b-7b-7b---------------|| 
D----------------------------------------------------------------|| 
A----------------------------------------------------------------|| 
E----------------------------------------------------------------|| 


(Verse) 2x                                             Gt. 1 & 2 
E----------------------------------------------------------------| 
B----------------------------------------------------------------| 
G---------7-7---4-4-4-4-4-4-4-4----------------------------------| 
D--8-88---7-7---4-4-4-4-4-4-4-4----------------------------------| 
A--8-88---5-5---2-2-2-2-2-2-2-2----------------------------------| 
E--6-66----------------------------------------------------------| 
     ..                                                          | 
                                                                 | 
                                                           Gt. 3 
E----------------------------------------------------------------|| 
B--3---7-7---5~~-----------3---7-7---5~~-------------------------|| 
G----------------------------------------------------------------|| 
D----------------------------------------------------------------|| 
A----------------------------------------------------------------|| 
E----------------------------------------------------------------|| 


(Chorus) 4x 
E----------------------------------------------------------------| 
B----------------------------------------------------------------| 
G--5-5-5-5-5-------5-5-------------------------------------------| 
D--5-5-5-5-5--6-6--5-5--6-6-6-6-6-6-6-6-6-6-6-6-6-6--------------| 
A--3-3-3-3-3--6-6--3-3--6-6-6-6-6-6-6-6-6-6-6-6-6-6--------------| 
E-------------4-4-------4-4-4-4-4-4-4-4-4-4-4-4-4-4--------------|  
                                                       Gt. 1 & 2 
E----------------------------------------------------------------|| 
B----------------------------------------------------------------|| 
G----------------------------------------------------------------|| 
D--5--5-5-5-5-5-5-5------5~--------------------------------------|| 
A--5--5-5-5-5-5-5-5------5~--------------------------------------|| 
E--3--3-3-3-3-3-3-3------3~--------------------------------------|| 

Long pause.... 


(Intro Riff)                                        6x Gt. 1 & 2 
E----------------------------------------------------------------| 
B----------------------------------------------------------------| 
G--5-5-555-5-5---7-7------5-5-555-5-5---7-7----------------------| 
D--5-5-555-5-5---7-7------5-5-555-5-5---7-7----------------------| 
A--3-3-333-3-3---5-5------3-3-333-3-3---5-5----------------------| 
E----------------------------------------------------------------| 
       ...                    ...                                | 
                                                                 | 
Comes in during Gt 1&2's 3rd time                          Gt. 3 
E----------------------------------------------------------------|| 
B----------------------------------------------------------------|| 
G--7b-7b-7b-7b-7b-7b-7b-7b-7b-7b-7b-7b-7b-7b-7b-7b---------------|| 
D----------------------------------------------------------------|| 
A----------------------------------------------------------------|| 
E----------------------------------------------------------------|| 


(Verse) 2x                                             Gt. 1 & 2 
E----------------------------------------------------------------| 
B----------------------------------------------------------------| 
G---------7-7---4-4-4-4-4-4-4-4----------------------------------| 
D--8-88---7-7---4-4-4-4-4-4-4-4----------------------------------| 
A--8-88---5-5---2-2-2-2-2-2-2-2----------------------------------| 
E--6-66----------------------------------------------------------| 
     ..                                                          | 
                                                                 | 
                                                           Gt. 3 
E----------------------------------------------------------------|| 
B--3---7-7---5~~---------3---7-7---5~~---------------------------|| 
G----------------------------------------------------------------|| 
D----------------------------------------------------------------|| 
A----------------------------------------------------------------|| 
E----------------------------------------------------------------|| 


(Chorus) 4x 
E----------------------------------------------------------------| 
B----------------------------------------------------------------| 
G--5-5-5-5-5-------5-5-------------------------------------------| 
D--5-5-5-5-5--6-6--5-5--6-6-6-6-6-6-6-6-6-6-6-6-6-6--------------| 
A--3-3-3-3-3--6-6--3-3--6-6-6-6-6-6-6-6-6-6-6-6-6-6--------------| 
E-------------4-4-------4-4-4-4-4-4-4-4-4-4-4-4-4-4--------------|  
                                                       Gt. 1 & 2 
E----------------------------------------------------------------|| 
B----------------------------------------------------------------|| 
G------------------------5~~~------------------------------------|| 
D--5--5-5-5-5-5-5-5------5~~~------------------------------------|| 
A--5--5-5-5-5-5-5-5------3~~~------------------------------------|| 
E--3--3-3-3-3-3-3-3----------------------------------------------|| 
		  

auto scroll beats size up size down change color hide chords drawings
tab show chords e-chords YouTube Clip e-chords hide all tabs e-chords go to top tab

share