Katatonia

Undo You

Katatonia

tabs

by  UBIRBOMFIM

save to print version add songbook text version e-mail correct tuner
chordsukulelecavacokeyboardtabbassdrumsharmonicaflute Guitar Pro
close

there isn't a video lesson for this song

chords

Undo You

	  		

  Standard tuning,  
 

  h = hammer-on 
  p = pull-off 

  "Solo" guitar parts at the end of the tab. 

  Intro part 1 00:00 - 00:33 

 ||-------------------------------------------------|| 
 ||-----0h1----------0------------0-----------------|| 
 ||--------------------4------------2---------------|| 
 ||---2-0---2------------0--------------------------|| x 4 
 ||-0---------------------------------3-------------|| 
 ||------------------3------------1-----------------|| 

  Intro part 2 00:34 - 00:49 

  (Delay pedal on original track for this bar) 

 |--------------------------------------------------| 
 |-0---0---0--------0---0---0------4---4---4--------| 
 |---2---2---2-----------------------3---3---3------| 
 |--------------------4---4-------------------------|  
 |--------------------------------------------------| 
 |-2----------------3--------------4----------------| 

  verse 1 00:49 - 01:25 

 |--------------------------------------------------| 
 |-------1-0h1------------1------------0------------| 
 |-----0---------------------------0h2---2----------| 
 |---2---------0h2------2------------------0--------|  
 |-0------------------0----------3------------------| 
 |-----------------------------1--------------------| 

 |----------------0---------------------------------| 
 |--------------1---0h1------------1----------------| 
 |-----1--------------------------------------------| 
 |------------2---------0h2------2------------------|  
 |---2------0------------------0--------------------| 
 |-0------------------------------------------------| 

 |--------------------------------------------------| 
 |---------0----------------------------------------| 
 |-----0h2---2------------1-------------------------| 
 |-------------0------------------------------------|  
 |---3-----------3------2---------------------------| 
 |-1------------------0-----------------------------| 

  Pre-Chorus 01:26 - 01:51 

  On these chords move your p-finger to the  
  third string after having played the chords 
  bass note long enough. 

 |--------------------------------------------------| 
 |---------------0----------------------------------| 
 |---------2---------2------------------------------| 
 |-----4-----4-----4---4--------0---4---------------|  
 |---4---4-----4---------4----0---5---------------- | 
 |-2------------------------------------------------| 

 |--------------------------------------------------| 
 |---------------0----------------------------------| 
 |---------2---------2--------------2---------------| 
 |-----4-----4-----4---4----------4-----------------|  
 |---4---4-----4---------4------4-------------------| 
 |-2--------------------------0---------------------| 

 |--------------------------------------------------| 
 |---------------0----------------------------------| 
 |---------2---------2------------------------------| 
 |-----4-----4-----4---4--------0---4---------------|  
 |---4---4-----4---------4----0---5-----------------| 
 |-2------------------------------------------------| 

 |-----------------------------------| 
 |---------0----------------0--------| 
 |-------2---2------------2---2------| 
 |-----3-------0--------4-------4----| 
 |---3-----------3----4-----------4--| 
 |-1----------------2----------------| 

 |-----------------------------------| 
 |---------0-----------------4-------| 
 |-----0-------0-----------3---3-----| 
 |-------4---4-----------6-------6---| 
 |---5------------5----6-----------6-| 
 |-3-----------------4---------------| 

  Three "bars" with piano before the guitars kicks in. 

  Chorus 01:52 - 02:23 

  Guitar 1 

 ||---------2----------------------------------------| 
 ||-------2---2-------------4---------------0--------| 
 ||-----4-------4---------3---3---------0-------0----| 
 ||---4-----------4-----6-------6---------4---4------|  
 ||-2-----------------6-----------6---5-----------5--| 
 ||-----------------4---------------3----------------| 

 |-----------------|| 
 |---------0-------|| 
 |-----0-------0---|| 
 |-------4---4-----|| x 2 
 |---5-----------5-|| 
 |-3---------------|| 

 |---------2---------------6---------------3---------| 
 |-----2h3---3p2-------6h7---7p6---4---3h4---4p3-----| 
 |---------------------------------------------------| 
 |---4-----------4---8-----------8---5-----------5---|  
 |-2---------------6---------------------------------| 
 |---------------------------------------------------| 

 |---------------------------------------------------| 
 |---------0-------------------------------2---------| 
 |-------0---0-------------4-------------0---0-------| 
 |-----1-------1---------4---4---------1-------1-----|  
 |---2-----------2-----6-------6-----2-----------2---| 
 |-0---------------0-7-----------7-0-----------------| 

  Guitar 2 

 ||--------------------|| 
 ||--------------------|| 
 ||--------------------|| 
 ||--4-----------------|| x 2 
 ||--2----6----5----5--|| 
 ||-------4----3----3--|| 

 |-------------------------| 
 |-------------------------| 
 |-------3-----------------| 
 |--4----1----5----5-------| 
 |--2---------3----3----2--| 
 |----------------------0--| 

  2nd verse 02:24 - 02:55 

 |-------0------------------------------------------| 
 |-----1---0h1------------1------------0------------| 
 |---------------------------------0h2---2----------| 
 |---2---------0h2------2------------------0--------|  
 |-0------------------0----------3------------------| 
 |-----------------------------1--------------------| 

 |----------------0---------------------------------| 
 |--------------1---0h1------------1----------------| 
 |-----1--------------------------------------------| 
 |------------2---------0h2------2------------------|  
 |---2------0------------------0--------------------| 
 |-0------------------------------------------------| 

 |--------------------------------------------------| 
 |---------0----------------------------------------| 
 |-----0h2---2------------1-------------------------| 
 |-------------0---------------2--------------------|  
 |---3-----------3------2---------------------------| 
 |-1------------------0-----------------------------| 

  Interlude 02:56 - 03:59 

 |-------------------------------------------------| 
 |---------0----------------0----------------0-----| 
 |-----2-------2--------2-------2--------2-------2-| 
 |---2---2---2------0h2---2---2------0h2---2---2---| 
 |-0--------------3--------------------------------| 
 |---------------------------------3---------------| 

 |-----------------| 
 |-------1p0-------| 
 |-----2-----2-----| 
 |---2---------0h2-| 
 |-0---------------| 
 |-----------------| 

 |-------------------------------------------------| 
 |---------0----------------0----------------0-----| 
 |-----2-------2--------2-------2--------2-------2-| 
 |-0h2---2---2------0h2---2---2------0h2---2---2---| 
 |----------------3--------------------------------| 
 |---------------------------------3---------------| 

 |-----------------| 
 |-----------0h1---| 
 |---------5-------| 
 |-------0-------0-| 
 |-----7-----------| 
 |-3s5-------------| 

 |---------------------------------------------------| 
 |-----------0----------------0----------------0-----| 
 |-------2-------2--------2-------2--------2-------2-| 
 |---0h2---2---2------0h2---2---2------0h2---2---2---| 
 |-0----------------3--------------------------------| 
 |---------------------------------3-----------------| 

 |-----------------| 
 |-------1p0-------| 
 |-----2-----2-----| 
 |---2---------0---| 
 |-0---------------| 
 |-----------------| 

 |---------------------------------------------------| 
 |-----------0----------------0----------------0-----| 
 |-------2-------2--------2-------2--------2-------2-| 
 |---0h2---2---2------0h2---2---2------0h2---2---2---| 
 |-0----------------3--------------------------------| 
 |---------------------------------3-----------------| 

 |-----------------| 
 |-----------0h1---| 
 |---------5-------| 
 |-------0-------0-| 
 |-----7-----------| 
 |-3s5-------------| 
    
  Drums, bass and solo guitar kicks in! 
  Check at the end of the tab for the solo guitar parts. 
  
 ||---------------------------------------------------| 
 ||-----------0----------------0----------------0-----| 
 ||-------2-------2--------2-------2--------2-------2-| 
 ||---0h2---2---2------0h2---2---2------0h2---2---2---| 
 ||-0----------------3--------------------------------| 
 ||---------------------------------3-----------------| 

 |-----------------| 
 |-------1p0-------| 
 |-----2-----2-----| 
 |---2---------0---| 
 |-0---------------| 
 |-----------------| 

 |---------------------------------------------------| 
 |-----------0----------------0----------------0-----| 
 |-------2-------2--------2-------2--------2-------2-| 
 |---0h2---2---2------0h2---2---2------0h2---2---2---| 
 |-0----------------3--------------------------------| 
 |---------------------------------3-----------------| 

 |-----------------|| 
 |-----------0h1---|| 
 |---------5-------|| 
 |-------0-------0-|| x 2 
 |-----7-----------|| 
 |-3s5-------------|| 

   04:00 - 04:13 

  On the two first chords move your p-finger to the  
  third string after having played the chords bass note 
  long enough. 

 |--------------------------------------------------| 
 |---------0--------------0--------------0----------| 
 |-----1s2---2----------2---2--------0-------0------| 
 |-------------0------0-------0--------4---4--------|  
 |---3--------------4--------------5----------------| 
 |-1--------------2--------------3------------------| 

 |---------------| 
 |---------4-----| 
 |-------3---3---| 
 |-----6-------6-| 
 |---6-----------| 
 |-4-------------| 

  Chorus 04:13 - 04:37 

  Guitar 1 

 ||---------2----------------------------------------| 
 ||-------2---2-------------4---------------0--------| 
 ||-----4-------4---------3---3---------0-------0----| 
 ||---4-----------4-----6-------6---------4---4------|  
 ||-2-----------------6-----------6---5-----------5--| 
 ||-----------------4---------------3----------------| 

 |-----------------|| 
 |---------0-------|| 
 |-----0-------0---|| 
 |-------4---4-----|| x 2 
 |---5-----------5-|| 
 |-3---------------|| 

 |---------2---------------6---------------3---------| 
 |-----2h3---3p2-------6h7---7p6---4---3h4---4p3-----| 
 |---------------------------------------------------| 
 |---4-----------4---8-----------8---5-----------5---|  
 |-2---------------6---------------------------------| 
 |---------------------------------------------------| 

 |---------------------------------------------------| 
 |---------0-------------------------------2---------| 
 |-------0---0-------------4-------------0---0-------| 
 |-----1-------1---------4---4---------1-------1-----|  
 |---2-----------2-----6-------6-----2-----------2---| 
 |-0---------------0-7-----------7-0-----------------| 

  Guitar 2 

 ||--------------------|| 
 ||--------------------|| 
 ||--------------------|| 
 ||--4-----------------|| x 2 
 ||--2----6----5----5--|| 
 ||-------4----3----3--|| 

 |-------------------------| 
 |-------------------------| 
 |-------3-----------------| 
 |--4----1----5----5-------| 
 |--2---------3----3----2--| 
 |----------------------0--| 


  Last part of the song 04:38 - 04:55 

 |-----------------------------------------------------| 
 |---------0----------------0----------------2---------| 
 |-------0---0------------0---0------------0---0-------| 
 |-----1-------1--------1-------1--------1-------1-----|  
 |---2-----------2----2-----------2----2-----------2---| 
 |-0----------------0----------------0---------------0-| 

   Solo guitar parts 

   03:28 - 03:44 

 |----------------------------------------------| 
 |--8-------------------------------------------| 
 |-------9-------7------5--------5-7-5p4--------| 
 |---------10------9------7-6------------7------|  
 |----------------------------------------------| 
 |----------------------------------------------| 

 |----------------------------------------------| 
 |----------------------------------------------| 
 |--9s10-9-------9-7--------7-5-----------------| 
 |---------10--------9----7-----7----6-7-6---6--|  
 |-----------------------------------------7----| 
 |----------------------------------------------| 

  04:00 - 04:08 

 |--------------------------------------------------| 
 |--------------------------------------------------| 
 |--------------------------------------------------| 
 |--------------------------------------------------|  
 |-7--7s11--11s9--9--12b13--------------------------| 
 |--------------------------------------------------| 
		  

auto scroll beats size up size down change color hide chords drawings
tab show chords e-chords YouTube Clip e-chords hide all tabs e-chords go to top tab

share