Katatonia

Saw You Drown

Katatonia

tabs

by  BOMBAXXX

save to print version add songbook text version e-mail correct tuner
chordsukulelecavacokeyboardtabbassdrumsharmonicaflute Guitar Pro
close

there isn't a video lesson for this song

chords

Saw You Drown

	  		Intro: 

e|---------------------------------------------------------------------------| 
B|-3-3-3-3-3-3-3-3-3-3-3-3-3-3-3-3--0-0-0-0-0-0-0-0-0-0-0-0-0-0-0-0----------| 
G|-4-4-4-4-4-4-4-4-4-4-4-4-4-4-4-4--5-5-5-5-5-5-5-5-5-5-5-5-5-5-5-5----------| 
D|---------------------------------------------------------------------------| 
A|---------------------------------------------------------------------------| 
E|---------------------------------------------------------------------------| 



Chorus: 

e|---------------------------------------------------------------------------| 
B|---------------------------------------------------------------------------| 
G|----------------------------------------------------4-4-4------------------| 
D|-----------------------------------4-4-4-4-4-4-4-4--5-5-5--5-4-4-4-0-------| 
A|-2-2-2-2-2-2-2-2--4-4-4-4-4-4-4-4--3-3-3-3-3-3-3-3--3-3-3--3-3-3-3-0-------| 
E|-0-0-0-0-0-0-0-0--2-2-2-2-2-2-2-2------------------------------------------| 
 |                                                                           | 
e|---------------------------------------------------------------------------| 
B|-3-3-3-3-3-3-3-3--0-0-0-0-0-3-3-0--0-0-0-0-0-0-0-0-0-0-0-0-0-0-0-0---------| 
G|-4-4-4-4-4-4-4-4--4-4-4-4-4-4-4-5--5-5-5-5-5-5-5-5-5-5-5-5-5-5-5-5---------| 
D|---------------------------------------------------------------------------| 
A|---------------------------------------------------------------------------| 
E|---------------------------------------------------------------------------| 



Verse: 
I play this part with intervals. Not sure that this played in a song, but looks pretty 

e|---------------------------------------------------------------------------| 
B|-5---3---1-----------------------------------------------------------------| 
G|-4---2---2------2---2---2--------------------------------------------------| 
D|----------------4---5---4--------------------------------------------------| 
A|---------------------------------------------------------------------------| 
E|---------------------------------------------------------------------------| 
                                                                             | 
Bass line:                                                                   | 
                                                                             | 
e|---------------------------------------------------------------------------| 
B|---------------------------------------------------------------------------| 
G|---------------------------------------------------------------------------| 
D|---------------------------------------------------------------------------| 
A|-7------------7-7----------------------------------------------------------| 
E|-----7---8--------8-0---7--------------------------------------------------| 



Bridge: 

e|---------------------------------------------------------------------------| 
B|---------------------------------------------------------------------------| 
G|-7-7-7-7-7-7-7-7--9-9-9-9-9-9-9-9------------------------------------------| 
D|-7-7-7-7-7-7-7-7--9-9-9-9-9-9-9-9--7-7-7-7-7-7-7-7-7-7-7-7-7-7-7-7---------| 
A|-5-5-5-5-5-5-5-5--7-7-7-7-7-7-7-7--7-7-7-7-7-7-7-7-7-7-7-7-7-7-7-7---------| 
E|-----------------------------------5-5-5-5-5-5-5-5-5-5-5-5-5-5-5-5---------| 
                                                                             | 
                                                                             | 
e|---------------------------------------------------------------------------| 
B|-----0---0-------0---0-----------------------------------------------------| 
G|---5---5---5---5---5---5---------------------------------------------------| 
D|-7-------------------------------------------------------------------------| 
A|---------------------------------------------------------------------------| 
E|---------------------------------------------------------------------------| 



Play it before last Chorus:  

e|-0------------------| 
B|---0----------------| 
G|-----0--------------| 
D|-------7------------| 
A|---------9----------| 
E|--------------------|  
		  

auto scroll beats size up size down change color hide chords drawings
tab show chords e-chords YouTube Clip e-chords hide all tabs e-chords go to top tab

share