John Williams

Lukes Theme

John Williams

tabs

by  HUGO_RODRIGUES

save to print version add songbook text version e-mail correct tuner
chordsukulelecavacokeyboardtabbassdrumsharmonicaflute Guitar Pro
close

there isn't a video lesson for this song

chords

Lukes Theme

	  		  


E|-----------------------------------------------------------| 
B|-----------------------------------------------------------| 
G|-----------------------------------------------------6--4~-| 
D|------4~---6~--7h9p7~-----------------4~-6-7-4-7-4---------| 
A|--4~--------------------4~----4~---------------------------| 
E|-----------------------------------------------------------| 

E|------------------------------------------------------------------| 
B|------------------------------------------------------------------| 
G|----------------------6----11~------------------------------------| 
D|--------4~---6--7--4-----7--------------11~-----------------------| 
A|-4-4-4~------------------------12-11-9~------12-11-9~---------9~--| 
E|-------------------------------------------------------9~--9------| 

Octave Up: 

E|-------------4---5h7p5----------------------4-5---5---9--7~--| 
B|--------7~-----------------------------7~-------7---7--------| 
G|-6-6-6-------------------6~--------6-------------------------| 
D|-------------------------------------------------------------| 
A|-------------------------------------------------------------| 
E|-------------------------------------------------------------| 

E|----------4-5-----9-----14~---------------------------------------------| 
B|-------7------7-----10--------------------14~---------------------------| 
G|-6-6-6----------------------14~--14-13-11-------14--13------------11~---| 
D|-------------------------------------------------------11~--11----------| 
A|------------------------------------------------------------------------| 
E|------------------------------------------------------------------------| 
		  

See also:

tabs Jessica Simpson - With You tabs Tenacious D - Kickapoo tabs Prince - Purple Rain (Intro) tabs Pavement - Spit on a stranger tabs Soundtracks - The Good The Bad And The Ugly Theme tabs Soundtracks - Star Wars - Darth Vader Theme
e-chords

Other versions:

tabs John Williams - Lukes Theme
auto scroll beats size up size down change color hide chords drawings
tab show chords e-chords YouTube Clip e-chords hide all tabs e-chords go to top tab

share