Jesus And Mary Chain

home > Jesus And Mary Cha...

Head On Tab

Jesus And Mary Chain

Difficulty: nolevelnolevel

by atual2007

tuner correct add songbook print version text version save to e-mail
chordsukulelecavacokeyboardtabbassdrumsharmonicsflute Guitar Pro
chords

Head On

	  Intro:              Fm     Gm    Cm             Fm   
(Powerchords)            |      |     |               
     C                                             | 
     | 
E||--------------------1------3--------------------1----------| 
B||--------------------1------3-----5--------------1----------| 
G||--X-----------------1------3-----5--------------1----------| 
D||--X------4/5-5-5----3------5-----5--------------3----------| 
A||--X------2/3-3-3----3------5-----3--------------3----------| 
E||--------------------1------3--------------------1----------| 

                        Make you wanna...  and I can´t stand…                                     
E||-1------3---------------------1----3----------------------| 
B||-1------3-----5------5-5------1----3--------5-------------| 
G||-1------3-----5------5-5------1----3--------5-------------| 
D||-3------5-----5------5-5------3----5--------5-------------| 
A||-3------5-----3------3-3------3----5--------3-------------| 
E||-1------3---------------------1----3----------------------| 

                 Head off the ground … 
E||----------------------------------------------------------| 
B||--10-----12-----------------------5-------10---------12---| 
G||--10-----12-----------------------5-------10---------12---| 
D||--10-----12-----------------------5-------10---------12---| 
A||--8------10-----------------------3-------8----------10---| 
E||----------------------------------------------------------| 

  As soon as i get my …         C (Powerchords)  … 
E||----------------------------------------------------------| 
B||---5------------------------------------------------------| 
G||---5-------------------------x----------------------------| 
D||---5-------------------------x----------------------------| 
A||---3-------------------------x----------------------------| 
E||----------------------------------------------------------| 

E||----------------------------------------------------------| 
B||----------------------------------------------------------| 
G||----------------------------------------------------------| 
D||----------------------------------------------------------| 
A||----------------------------------------------------------| 
E||----------------------------------------------------------| 

  ...( solo )                                                      
E||----------------------------------------------------------| 
B||----------------------------------------------5-----------| 
G||-5---5---5-------5---5--5----5-5--5----5--5--7------------| 
D||---7---7-------7---7---7------7--7----7-7---7-------------| 
A||----------------------------------------------------------| 
E||----------------------------------------------------------| 

                                                             
E||----------------------------------------------------------| 
B||-----------5------5---------------5-----------------------| 
G||-5-5-5----7-5----5-5----5-5-5-7---5-----------------------| 
D||--7-7----7---7--7---7----7-7------5-----------------------| 
A||----------------------------------3-----------------------| 
E||----------------------------------------------------------| 
                                                            
E||----------------------------------------------------------| 
B||----------------------------------------------------------| 
G||----------------------------------------------------------| 
D||------------------------------------------------------2-5-| 
A||-------3-3-------3-3-------3-3-----------3-3-3-5-0-3------| 
E||----3-5-5-----3-5-5-----3-5-5---------3-5-5---------------| 

                                                             
E||----------------------------------------------------------| 
B||----------------------------------------------------------| 
G||----------------------------------------------------------| 
D||----------------------------------------------------------| 
A||-------3-3-3----------------------------------------------| 
E||----3-5-5---5-3-5-3---------------------------------------| 
   
    Makes you wanna feel…                    
E||----------------------------------------------------------| 
B||-------------------------------------------------10----12-| 
G||-------------------------------------------------10----12-| 
D||----3---5--10--12------3---5--10--12-----3--5----10----12-| 
A||-3-5-5--3--8---8--- 3-5-5--3--8---8---3-5-5-3----8-----10-| 
E||----------------------------------------------------------| 

                         … Head off the ground                                     
E||----------------------------------------------------------| 
B||-------5----10-----12---------------5---------------------| 
G||-------5----10-----12---------------5---------------------| 
D||----3--5----10-----12---------------5---------------------| 
A||-3-5-5-3----8------10---------------3---------------------| 
E||----------------------------------------------------------| 

              Yeah yeah yeah               
E||----------------------------------------------------------| 
B||-----------10-----12--------------------5-----------------| 
G||-----------10-----12--------------------5-----------------| 
D||-----------10-----12----------------3---5-------3-----5---| 
A||-----------8------10-------------3-5-5--3-------3-----5---| 
E||------------------------------------------------1-----3---| 


E||----------------------------------------------------------| 
B||----------------------------------------------------------| 
G||-----------5----------------------------------------------| 
D||------3----5------3----5----------------------------------| 
A||-----3-5-5-3------3----5----------------------------------| 
E|-------------------1----3----------------------------------| 


     I said Yeah yeah yeah yeah           

E||----------------------------------------------------------| 
B||--------5--10--12----------5--10--12--------5----10----12-| 
G||--------5--10--12----------5--10--12--------5----10----12-| 
D||----3---5--10--12------3---5--10--12-----3--5----10----12-| 
A||-3-5-5--3--8---8--- 3-5-5--3--8---8---3-5-5-3----8-----10-| 
E||----------------------------------------------------------| 

                             
E||----------------------------------------------------------| 
B||------------10-----12-------------------------------------| 
G||------------10-----12-------------------------------------| 
D||----3--5----10-----12-------------------------------------| 
A||-3-5-5-3----8------10-------------------------------------| 
E||----------------------------------------------------------| 
                                                             
E||----------------------------------------------------------| 
B||----------------------------------------------------------| 
G||----------------------------------------------------------| 
D||----------------------------------------------------------| 
A||----------------------------------------------------------| 
E||----------------------------------------------------------| 


Rivl_@hotmail.com
	  

there isn't a video lesson for this song

request
Search
auto scroll beats size up size down change color hide chords drawings
tab show chords e-chords YouTube Clip e-chords hide all tabs e-chords go to top tab