Jeff Williams

Red Like Roses Part Ii

Jeff Williams

tabs

by  UBIRBOMFIM

save to print version add songbook text version e-mail correct tuner
chordsukulelecavacokeyboardtabbassdrumsharmonicaflute Guitar Pro
close

there isn't a video lesson for this song

chords

Red Like Roses Part Ii

	  		Gtr I (E A D G B E) - 'Lead 1' 
Gtr II (E A D G B E) - 'Lead 2' 
Gtr III (E A D G B E) - 'Rhythm' 

 Strings Intro 
  Q=200 
 4/4 
|-----| 
|-----| 
|-----| 
|-----| 
|-----| 
|-----| 


 Band In 
 4/4 
  Gtr I 
|---0-------------|----------------|---0-------------|-----------------| 
|-----2---3-----2-|--2---------0---|-----2---3-----2-|----0-3-2--------| 
|-----------2-----|----2---------2-|-----------2-----|--0-------2------| 
|-------2-----2---|------2-4-2-----|-------2-----2---|------------2-4--| 
|-----------------|----------------|-----------------|-----------------| 
|-----------------|----------------|-----------------|-----------------| 
| 
| Gtr III 
|-----------------|----------------|-----------------|-----------------| 
|-----------------|----------------|-----------------|-----------------| 
|-----------------|----------------|-----------------|-----------------| 
|-9---------------|----------------|-9---------------|-----------------| 
|-9---------------|----------------|-9---------------|-----------------| 
|-7---------------|----------------|-7---------------|-----------------| 


|---------------2-|--0-------------|-----------------|---------------2-| 
|-------2---------|----3-0---2-3---|-----------------|---0---------2---| 
|-----2---2---2---|----------------|-------0-------0-|-2---0-----2-----| 
|---2-------2-----|--------4-----0-|---0-2---0-2-4---|-------4-2-------| 
|-----------------|----------------|-4---------------|-----------------| 
|-----------------|----------------|-----------------|-----------------| 
| 
|-----------------|----------------|-----------------|-----------------| 
|-----------------|----------------|-----------------|-----------------| 
|-----------------|----------------|-----------------|-----------------| 
|-5---------------|----------------|-2---------------|-4-------5-------| 
|-5---------------|----------------|-2---------------|-4-------5-------| 
|-3---------------|----------------|-0---------------|-2-------3-------| 


|---0-------------|----------------|---0-------------|----------------| 
|-----2---3-----2-|--2---------0---|-----2---3-----2-|----0-3-2-------| 
|-----------2-----|----2---------2-|-----------2-----|--0-------2-----| 
|-------2-----2---|------2-4-2-----|-------2-----2---|------------2-4-| 
|-----------------|----------------|-----------------|----------------| 
|-----------------|----------------|-----------------|----------------| 
| 
| Gtr II 
|---3-0---2-------|--0-------------|---3-0---2-------|------2-0-------| 
|-----------2-----|----2-------3-2-|-----------2-----|--0-3-----2-----| 
|-------0-----0-2-|------0-2-0-----|-------0-----0-2-|------------0-2-| 
|-----------------|----------------|-----------------|----------------| 
|-----------------|----------------|-----------------|----------------| 
|-----------------|----------------|-----------------|----------------| 
| 
| Gtr III 
|-----------------|----------------|-----------------|----------------| 
|-----------------|----------------|-----------------|----------------| 
|-----------------|----------------|-----------------|----------------| 
|-9---------------|----------------|-9---------------|----------------| 
|-9---------------|----------------|-9---------------|----------------| 
|-7---------------|----------------|-7---------------|----------------| 


|---------------2-|--0-------------|-----------------|---------------2-| 
|-------2---------|----3-0---2-3---|-----------------|---0---------2---| 
|-----2---2---2---|----------------|-------0-------0-|-2---0-----2-----| 
|---2-------2-----|--------4-----0-|---0-2---0-2-4---|-------4-2-------| 
|-----------------|----------------|-4---------------|-----------------| 
|-----------------|----------------|-----------------|-----------------| 
| 
|-------0-------5-|--3-2-----0-2---|-----------------|-------------2-5-| 
|-----2---2-------|------3---------|-------0-------0-|-2-3-0-----2-----| 
|---0-------0-2---|--------2-----2-|-----0-----0-2---|-------2-0-------| 
|-----------------|----------------|-2-4-----4-------|-----------------| 
|-----------------|----------------|-----------------|-----------------| 
|-----------------|----------------|-----------------|-----------------| 
| 
|-----------------|----------------|-----------------|-----------------| 
|-----------------|----------------|-----------------|-----------------| 
|-----------------|----------------|-----------------|-----------------| 
|-5---------------|----------------|-2---------------|-4-------5-------| 
|-5---------------|----------------|-2---------------|-4-------5-------| 
|-3---------------|----------------|-0---------------|-2-------3-------| 


 Guitar Solo 1 
  Gtr I 
                                      ~~~~~~~~~~~~~~~ 
|----------------------|----------------------------| 
|----------------------|----------------------------| 
|----11-11-11-11-11-11-|-11-11-11-11-14-(14)-(14)---| 
|----------------------|----------------------------| 
|----------------------|----------------------------| 
|----------------------|----------------------------| 
| 
| Gtr III 
|     PM--------------------------------------------- 
|----------------------|----------------------------| 
|----------------------|----------------------------| 
|----------------------|----------------------------| 
|-9--------------------|----------------------------| 
|-9---9--9--9--9--9--9-|--9--9--9--9--9---9----9--9-| 
|-7---7--7--7--7--7--7-|--7--7--7--7--7---7----7--7-| 


 ~~~~~~                                   ~~ 
|--------------------------|----------------------| 
|--------------------------|----------------------| 
|-(14)---11-11-11-11-11-11-|-11-11-11-11-14-------| 
|--------------------------|----------------------| 
|--------------------------|----------------------| 
|--------------------------|----------------------| 
| 
|-----------------------------------------------| 
|--------------------------|----------------------| 
|--------------------------|----------------------| 
|--------------------------|----------------------| 
|--------------------------|----------------------| 
|---9--9--9--9--9--9--9--9-|--9--9--9--9--9-9-9-9-| 
|---7--7--7--7--7--7--7--7-|--7--7--7--7--7-7-7-7-| 


    ~~~~ 
|-------------------------|-------------------------| 
|-------------------------|-------------------------| 
|-(14)--11-11-11-11-11-11-|-11-11-11-11-11-14-11-11-| 
|-------------------------|-------------------------| 
|-------------------------|-------------------------| 
|-------------------------|-------------------------| 
| 
|        PM--------------------------------------| 
|-------------------------|-------------------------| 
|-------------------------|-------------------------| 
|-------------------------|-------------------------| 
|---5---------------------|-------------------------| 
|---5----5--5--5--5--5--5-|--5--5--5--5--5--5--5--5-| 
|---3----3--3--3--3--3--3-|--3--3--3--3--3--3--3--3-| 


                                         ~~ 
|-------------------------|-----------------------| 
|-------------------------|-------------13--------| 
|-11-11-11-11-11-11-11-11-|-11-11-11-11-----------| 
|-------------------------|-----------------------| 
|-------------------------|-----------------------| 
|-------------------------|-----------------------| 
| 
|        PM|         PM|           PM|       PM| 
|-------------------------|-----------------------| 
|-------------------------|-----------------------| 
|-------------------------|-----------------------| 
|--2-----------4----------|--5----------10--------| 
|--2-----2--2--4-----4--4-|--5-----5--5-10--10-10-| 
|--0-----0--0--2-----2--2-|--3-----3--3--8---8--8-| 


  Gtr I 
|-------------------------|-------------------------| 
|-(13)--------------------|-------------------------| 
|-------11-11-11-11-11-11-|-11-11-11-11-11-11-11-11-| 
|-------------------------|-------------------------| 
|-------------------------|-------------------------| 
|-------------------------|-------------------------| 
| 
| Gtr II 
|-------14-14-14-14-14-14-|-14-14-14-14-14-14-14-14-| 
|-------------------------|-------------------------| 
|-------------------------|-------------------------| 
|-------------------------|-------------------------| 
|-------------------------|-------------------------| 
|-------------------------|-------------------------| 
| 
| Gtr III 
|        PM------------------------------------------ 
|-------------------------|-------------------------| 
|-------------------------|-------------------------| 
|-------------------------|-------------------------| 
|---9---------------------|-------------------------| 
|---9----9--9--9--9--9--9-|--9--9--9--9--9--9--9--9-| 
|---7----7--7--7--7--7--7-|--7--7--7--7--7--7--7--7-| 


|-----------------------------|-----------------------------| 
|-----------------------------|-----------------------------| 
|-11-11-11-11-(11)-11-(11)-11-|-11-11-11-11-(11)-11-(11)-11-| 
|-----------------------------|-----------------------------| 
|-----------------------------|-----------------------------| 
|-----------------------------|-----------------------------| 
| 
|-14-14-14-14-(14)-14-(14)-14-|-14-14-14-14-(14)-14-(14)-14-| 
|-----------------------------|-----------------------------| 
|-----------------------------|-----------------------------| 
|-----------------------------|-----------------------------| 
|-----------------------------|-----------------------------| 
|-----------------------------|-----------------------------| 
| 
|--------------------------------------------------------| 
|-----------------------------|-----------------------------| 
|-----------------------------|-----------------------------| 
|-----------------------------|-----------------------------| 
|-----------------------------|-----------------------------| 
|--9--9--9--9---9---9---9---9-|--9--9--9--9---9---9---9---9-| 
|--7--7--7--7---7---7---7---7-|--7--7--7--7---7---7---7---7-| 


|-------------------------|-------------------------| 
|-------------------------|-------------------------| 
|-11-11-11-11-11-11-11-11-|-11-11-11-11-11-11-11-11-| 
|-------------------------|-------------------------| 
|-------------------------|-------------------------| 
|-------------------------|-------------------------| 
| 
|-14-14-14-14-14-14-14-14-|-14-14-14-14-14-14-14-14-| 
|-------------------------|-------------------------| 
|-------------------------|-------------------------| 
|-------------------------|-------------------------| 
|-------------------------|-------------------------| 
|-------------------------|-------------------------| 
| 
|        PM------------------------------------------ 
|-------------------------|-------------------------| 
|-------------------------|-------------------------| 
|-------------------------|-------------------------| 
|--5----------------------|-------------------------| 
|--5-----5--5--5--5--5--5-|--5--5--5--5--5--5--5--5-| 
|--3-----3--3--3--3--3--3-|--3--3--3--3--3--3--3--3-| 


|-----------------------|------------------| 
|-----------------------|------------------| 
|-11-12-11-10--9--7-6-5-|-4-5-6--7-6-5-4---| 
|-----------------------|----------------3-| 
|-----------------------|------------------| 
|-----------------------|------------------| 
| 
|-14-15-14-13-12-10-9-8-|-7-8-9-10-9-8-7---| 
|-----------------------|----------------6-| 
|-----------------------|------------------| 
|-----------------------|------------------| 
|-----------------------|------------------| 
|-----------------------|------------------| 
| 
|-| 
|-----------------------|------------------| 
|-----------------------|------------------| 
|-----------------------|------------------| 
|-----------------------|------------------| 
|--5--2-----------------|------------------| 
|--3--0-----------------|------------------| 


                    Gtrs I, II 
|----------------------|-------------------------------| 
|-------------------12-|-14-15-(15)-14-(14)-12-14-(14)-| 
|----------------------|-------------------------------| 
|-2--(2)-(2)\----------|-------------------------------| 
|----------------------|-------------------------------| 
|----------------------|-------------------------------| 
| 
|----------------------|-------------------------------| 
|-5--(5)-(5)\----------|-------------------------------| 
|----------------------|-------------------------------| 
|----------------------|-------------------------------| 
|----------------------|-------------------------------| 
|----------------------|-------------------------------| 
| 
|     PM------------|            PM-|           PM| 
|----------------------|-------------------------------| 
|----------------------|-------------------------------| 
|----------------------|-------------------------------| 
|-2--------------------|--5--------------4-------------| 
|-2---2---2---2-2-2--2-|--5------5---5---4------4---4--| 
|-0---0---0---0-0-0--0-|--3------3---3---2------2---2--| 


|------------------------|--------------------| 
|-12------(12)-----------|--------------------| 
|--------------11-(11)---|-(11)---------------| 
|------------------------|--------------------| 
|------------------------|--------------------| 
|------------------------|--------------------| 
| 
|------------------------|--------------------| 
|------------------------|--------------------| 
|------------------------|--------------------| 
|------------------------|--------------------| 
|------------------------|--------------------| 
|------------------------|--------------------| 
| 
|     PM------------------------------------| 
|------------------------|--------------------| 
|------------------------|--------------------| 
|--4---------------------|--------------------| 
|--4--4-4---4---4---4--4-|---4--4-4-4-4-4-4-4-| 
|--2--2-2---2---2---2--2-|---2--2-2-2-2-2-2-2-| 
|------------------------|--------------------| 


|---------------------|-----------------------| 
|------------------14-|---15-(15)-14-12--14---| 
|-(11)\---------------|-----------------------| 
|---------------------|-----------------------| 
|---------------------|-----------------------| 
|---------------------|-----------------------| 
| 
| Gtr III 
|        PM--------|           PM-|       PM| 
|---------------------|-----------------------| 
|---------------------|-----------------------| 
|---------------------|-----------------------| 
|---2-----------------|-5-------------4-------| 
|---2----2-2-2-2-2--2-|-5------5---5--4---4-4-| 
|---0----0-0-0-0-0--0-|-3------3---3--2---2-2-| 


   ~~~~~~~~~~~~~~~~~~~~~ 
|----------------|------------------| 
|-12-------------|-(12)-------------| 
|----------------|------------------| 
|----------------|------------------| 
|----------------|------------------| 
|----------------|------------------| 
| 
|     PM|    PM|         PM|    PM| 
|----------------|------------------| 
|----------------|------------------| 
|--4------4------|---4-------4------| 
|--4------4------|---4-------4------| 
|--2--2-2-2--2-2-|---2---2-2-2--2-2-| 
|----------------|------------------| 


           Gtr I 
|-----------------------|-------------------| 
|-(12)\----12---12-14---|-15--14---12--14---| 
|-----------------------|-------------------| 
|-----------------------|-------------------| 
|-----------------------|-------------------| 
|-----------------------|-------------------| 
| 
|          Gtr II 
|-----------------------|-------------------| 
|----------12---12-14---|-15--14---12--14---| 
|-----------------------|-------------------| 
|-----------------------|-------------------| 
|-----------------------|-------------------| 
|-----------------------|-------------------| 
| 
| Gtr III 
|        PM-----------|        PM|      PM| 
|-----------------------|-------------------| 
|-----------------------|-------------------| 
|-----------------------|-------------------| 
|---2-------------------|--5--------4-------| 
|---2----2--2-2--2--2-2-|--5---5-5--4---4-4-| 
|---0----0--0-0--0--0-0-|--3---3-3--2---2-2-| 


|------------------------|-------------------------| 
|-12------(12)-----------|-------------------------| 
|--------------11-(11)---|-(11)-------(11)-11-11---| 
|------------------------|-------------------------| 
|------------------------|-------------------------| 
|------------------------|-------------------------| 
| 
|------------------------|-------------------------| 
|-12------(12)-----------|-------------------------| 
|--------------11-(11)---|-(11)--------------------| 
|------------------------|-------------------------| 
|------------------------|-------------------------| 
|------------------------|-------------------------| 
| 
|     PM-----------------------------------------| 
|------------------------|-------------------------| 
|------------------------|-------------------------| 
|--4---------------------|-------------------------| 
|--4--4-4---4---4---4--4-|---4--4-4-4---4---4--4-4-| 
|--2--2-2---2---2---2--2-|---2--2-2-2---2---2--2-2-| 
|------------------------|-------------------------| 


|------------------------|-------------------------| 
|------------------------|-----------------17-17---| 
|--12--------------------|-(12)-------(12)---------| 
|------------------------|-------------------------| 
|------------------------|-------------------------| 
|------------------------|-------------------------| 
| 
|------------------------|-------------------------| 
|----------------12-12---|--12---------------------| 
|-(11)------(11)---------|-------------------------| 
|------------------------|-------------------------| 
|------------------------|-------------------------| 
|------------------------|-------------------------| 
| 
| Gtr III 
|       PM---------------------------------------| 
|------------------------|-------------------------| 
|------------------------|-------------------------| 
|---5--------------------|-------------------------| 
|---5---5-5---5---5--5-5-|---5--5-5-5---5---5--5-5-| 
|---3---3-3---3---3--3-3-|---3--3-3-3---3---3--3-3-| 
|------------------------|-------------------------| 


|----------------|------------------| 
|-16-------------|-(16)-------------| 
|----------------|------------------| 
|----------------|------------------| 
|----------------|------------------| 
|----------------|------------------| 
| 
|----------------|------------------| 
|-16-------------|-(16)-------------| 
|----------------|------------------| 
|----------------|------------------| 
|----------------|------------------| 
|----------------|------------------| 
| 
|----------------|------------------| 
|----------------|---8---8-8-7--7-7-| 
|--5--5-5-8--8-8-|------------------| Arrangement for two guitars 
|----------------|---5---5-5-4--4-4-| 
|--3--3-3-6--6-6-|------------------| 
|----------------|------------------| 


|-----------------|-----------------| 
|-17------16------|-12--------------| 
|-----------------|---------12------| 
|-----------------|-----------------| 
|-----------------|-----------------| 
|-----------------|-----------------| 
| 
|-----------------|-----------------| 
|-17------16------|-12--------------| 
|-----------------|---------12------| 
|-----------------|-----------------| 
|-----------------|-----------------| 
|-----------------|-----------------| 
| 
|-----------------|-----------------| 
|-----------------|--8--8-8--7--7-7-| 
|--5--5-5--8--8-8-|-----------------| 
|-----------------|--5--5-5--4--4-4-| 
|--3--3-3--6--6-6-|-----------------| 
|-----------------|-----------------| 


|-14---15-14-15-14-15-14-|-15-14-15-14-15-14-15-14-| 
|------------------------|-------------------------| 
|------------------------|-------------------------| 
|------------------------|-------------------------| 
|------------------------|-------------------------| 
|------------------------|-------------------------| 
| 
|------------------------|-------------------------| 
|------------------------|-------------------------| 
|-11---12-11-12-11-12-11-|-12-11-12-11-12-11-12-11-| 
|------------------------|-------------------------| 
|------------------------|-------------------------| 
|------------------------|-------------------------| 
| 
|------------------------|-------------------------| 
|----7--8--7--8--7--8--7-|--8--7--8--7--8--7--8--7-| 
|------------------------|-------------------------| 
|----4--5--4--5--4--5--4-|--5--4--5--4--5--4--5--4-| 
|------------------------|-------------------------| 
|------------------------|-------------------------| 


                                                                    7/8 
|-15-14-15-14-15-14-15-14-|-15-14-15-14-15-14-(14)-(14)\-|---------|-----| 
|-------------------------|------------------------------|---------|-----| 
|-------------------------|------------------------------|---------|-----| 
|-------------------------|------------------------------|---------|-----| 
|-------------------------|------------------------------|---------|-----| 
|-------------------------|------------------------------|---------|-----| 
| 
|-------------------------|------------------------------|---------|-----| 
|-------------------------|------------------------------|---------|-----| 
|-12-11-12-11-12-11-12-11-|-12-11-12-11-12-11-(11)-(11)\-|---------|-----| 
|-------------------------|------------------------------|---------|-----| 
|-------------------------|------------------------------|---------|-----| 
|-------------------------|------------------------------|---------|-----| 
| 
|-------------------------|------------------------------|---------|-----| 
|--8--7--8--7--8--7--8--7-|--8--7--8--7--8--7--(7)--(7)\-|---------|-----| 
|-------------------------|------------------------------|---------|-----| 
|--5--4--5--4--5--4--5--4-|--5--4--5--4--5--4--(4)--(4)\-|---------|-----| 
|-------------------------|------------------------------|---------|-----| 
|-------------------------|------------------------------|---------|-----| 


 4/4 
  Gtrs I, II 
|-----------------|-----------------|-----------------|------------------------| 
|-----------------|-----------------|-12--------------|---------------12-14----| 
|-11--------------|-9---------------|-----------------|-11-------(11)----------| 
|-----------------|-----------------|-----------------|------------------------| 
|-----------------|-----------------|-----------------|------------------------| 
|-----------------|-----------------|-----------------|------------------------| 
| 
| Gtr III 
|     PM--------------------------|       PM--------------------------------| 
|-----------------|-----------------|-----------------|------------------------| 
|-----------------|-----------------|-----------------|------------------------| 
|-----------------|-----------------|-----------------|------------------------| 
|--9--------------|-----------------|--5--------------|------------------------| 
|--9--9-9-9-9-9-9-|-9-9-9-9-9-9-9-9-|--5--5-5-5-5-5-5-|--5-5-5-5---5---5--5-5--| 
|--7--7-7-7-7-7-7-|-7-7-7-7-7-7-7-7-|--3--3-3-3-3-3-3-|--3-3-3-3---3---3--3-3--| 


|---------------------|-----------------------| 
|-15------(15)---14---|-12-------(12)-14-15---| 
|---------------------|-----------------------| 
|---------------------|-----------------------| 
|---------------------|-----------------------| 
|---------------------|-----------------------| 
| 
|     PM------------------------------------| 
|---------------------|-----------------------| 
|---------------------|-----------------------| 
|---------------------|-----------------------| 
|--2------------------|-----------------------| 
|--2--2-2---2--2--2-2-|--2-2-2-2---2---2--2-2-| 
|--0--0-0---0--0--0-0-|--0-0-0-0---0---0--0-0-| 


|-----------------|----------------| 
|-14--------------|----------------| 
|-----------------|-14-------------| 
|-----------------|----------------| 
|-----------------|----------------| 
|-----------------|----------------| 
| 
|     PM--------|       PM|    PM| 
|-----------------|----------------| 
|-----------------|----------------| 
|-----------------|----------------| 
|--4--------------|--5------7------| 
|--4--4-4-4-4-4-4-|--5--5-5-7--7-7-| 
|--2--2-2-2-2-2-2-|--3--3-3-5--5-5-| 


|-----------------|------------------|-----------------|-----------------------| 
|-----------------|------------------|-12--------------|-14-------(14)-12-14---| 
|-11--------------|-14---------------|-----------------|-----------------------| 
|-----------------|------------------|-----------------|-----------------------| 
|-----------------|------------------|-----------------|-----------------------| 
|-----------------|------------------|-----------------|-----------------------| 
| 
|     PM---------------------------|       PM--------------------------------| 
|-----------------|------------------|-----------------|-----------------------| 
|-----------------|------------------|-----------------|-----------------------| 
|-----------------|------------------|-----------------|-----------------------| 
|--9--------------|------------------|--5--------------|-----------------------| 
|--9--9-9-9-9-9-9-|--9-9-9-9-9-9-9-9-|--5--5-5-5-5-5-5-|--5-5-5-5---5---5--5-5-| 
|--7--7-7-7-7-7-7-|--7-7-7-7-7-7-7-7-|--3--3-3-3-3-3-3-|--3-3-3-3---3---3--3-3-| 


|--------------------|---------------------| 
|-15--14---14---12---|-12--------12---14---| 
|--------------------|------11-------------| 
|--------------------|---------------------| 
|--------------------|---------------------| 
|--------------------|---------------------| 
| 
|      PM--------------------------------| 
|--------------------|---------------------| 
|--------------------|---------------------| 
|--------------------|---------------------| 
|--2-----------------|---------------------| 
|--2---2-2--2-2--2-2-|--2-2--2-2--2-2--2-2-| 
|--0---0-0--0-0--0-0-|--0-0--0-0--0-0--0-0-| 


|--------------------|----------------------------| 
|-15--14---12--------|-14------(14)-14-(14)-(14)s=| 
|---------------14---|----------------------------| 
|--------------------|----------------------------| 
|--------------------|----------------------------| 
|--------------------|----------------------------| 
| 
|      PM----------|       PM|           PM-| 
|--------------------|----------------------------| 
|--------------------|----------------------------| 
|--------------------|----------------------------| 
|--4-----------------|--5--------7----------------| 
|--4---4-4--4-4--4-4-|--5--5-5---7-------7----7---| 
|--2---2-2--2-2--2-2-|--3--3-3---5-------5----5---| 


 verse 1 
|----------------|---------|----------|-----| 
|-12-(12)\-------|---------|----------|-----| 
|----------------|---------|----------|-----| 
|----------------|---------|----------|-----| 
|----------------|---------|----------|-----| 
|----------------|---------|----------|-----| 
| 
|----------------|---------|----------|-----| 
|----------------|---------|----------|-----| 
|----------------|---------|----------|-----| 
|--9-------------|---------|-9--------|-----| 
|--9-------------|---------|-9--------|-----| 
|--7-------------|---------|-7--------|-----| 


  Gtr III 
|----------|---------|----------|-----------| 
|----------|---------|----------|-----------| 
|----------|---------|----------|-----------| 
|-5--------|---------|-2--------|-4----5----| 
|-5--------|---------|-2--------|-4----5----| 
|-3--------|---------|-0--------|-2----3----| 


|----------|---------|----------|-----| 
|----------|---------|----------|-----| 
|----------|---------|----------|-----| 
|-9--------|---------|-9--------|-----| 
|-9--------|---------|-9--------|-----| 
|-7--------|---------|-7--------|-----| 


|----------|---------|----------|-----------| 
|----------|---------|----------|-----------| 
|----------|---------|----------|-----------| 
|-5--------|---------|-2--------|-4----5----| 
|-5--------|---------|-2--------|-4----5----| 
|-3--------|---------|-0--------|-2----3----| 


  Gtrs I, II 
     PM--------------------------------------------------------------| 
|----------------|-----------------|-----------------|-----------------| 
|----------------|-----------------|-----------------|-----------------| 
|----------------|-----------------|-----------------|-----------------| 
|-9--------------|-----------------|-----------------|-----------------| 
|-9--9-9-9-9-9-9-|-9-9-9-9-9-9-9-9-|-9-9-9-9-9-9-9-9-|-9-9-9-9-9-9-9-9-| 
|-7--7-7-7-7-7-7-|-7-7-7-7-7-7-7-7-|-7-7-7-7-7-7-7-7-|-7-7-7-7-7-7-7-7-| 


     PM--------------------------|      PM|    PM|      PM|      PM| 
|----------------|-----------------|---------------|------------------| 
|----------------|-----------------|---------------|------------------| 
|----------------|-----------------|---------------|------------------| 
|-5--------------|-----------------|-2------4------|-5------10--------| 
|-5--5-5-5-5-5-5-|-5-5-5-5-5-5-5-5-|-2--2-2-4--4-4-|-5--5-5-10--10-10-| 
|-3--3-3-3-3-3-3-|-3-3-3-3-3-3-3-3-|-0--0-0-2--2-2-|-3--3-3--8---8--8-| 


     PM--------------------------------------------------------------| 
|----------------|-----------------|-----------------|-----------------| 
|----------------|-----------------|-----------------|-----------------| 
|----------------|-----------------|-----------------|-----------------| 
|-9--------------|-----------------|-----------------|-----------------| 
|-9--9-9-9-9-9-9-|-9-9-9-9-9-9-9-9-|-9-9-9-9-9-9-9-9-|-9-9-9-9-9-9-9-9-| 
|-7--7-7-7-7-7-7-|-7-7-7-7-7-7-7-7-|-7-7-7-7-7-7-7-7-|-7-7-7-7-7-7-7-7-| 


     PM------------------------------| 
|----------------|-----------------|-----------------|-----------------| 
|----------------|-----------------|-----------------|-----------------| 
|----------------|-----------------|-----------------|-----------------| 
|-5--------------|-----------------|-----------------|-----------------| 
|-5--5-5-5-5-5-5-|-5-5-5-5-5-5-5-5-|-5---------------|-----------------| 
|-3--3-3-3-3-3-3-|-3-3-3-3-3-3-3-3-|-3---------------|-----------------| 
| 
| Gtr III 
|----------------|-----------------|-----------------|-----------------| 
|----------------|-----------------|---8-7-6-5-------|-----------------| 
|----------------|-----------------|-----------7-6-5-|-4-5-6-7-6-5-4---| Arrangement for two guitars 
|----------------|-----------------|---5-4-3-2-------|---------------3-| 
|----------------|-----------------|-----------5-4-3-|-2-3-4-5-4-3-2---| 
|----------------|-----------------|-----------------|---------------1-| 


 Pre-Chorus 1 
     PM--------|      PM|    PM|      PM--------------------------| 
|----------------|---------------|----------------|-----------------| 
|----------------|---------------|----------------|-----------------| 
|----------------|---------------|-4--------------|-----------------| 
|-2--------------|-5------4------|-4--4-4-4-4-4-4-|-4-4-4-4-4-4-4-4-| 
|-2--2-2-2-2-2-2-|-5--5-5-4--4-4-|-2--2-2-2-2-2-2-|-2-2-2-2-2-2-2-2-| 
|-0--0-0-0-0-0-0-|-3--3-3-2--2-2-|----------------|-----------------| 
| 
| ~ 
|----------------|---------------|----------------|-----------------| 
|----------------|---------------|----------------|-----------------| 
|----------------|---------------|----------------|-----------------| 
|-2--------------|---------------|----------------|-----------------| 
|----------------|---------------|----------------|-----------------| 
|-0--------------|---------------|----------------|-----------------| 


     PM--------|      PM|    PM|      PM|    PM|      PM|    PM| 
|----------------|---------------|---------------|---------------| 
|----------------|---------------|---------------|---------------| 
|----------------|---------------|-4------4------|-4------4------| 
|-2--------------|-5------4------|-4------4------|-4------4------| 
|-2--2-2-2-2-2-2-|-5--5-5-4--4-4-|-2--2-2-2--2-2-|-2--2-2-2--2-2-| 
|-0--0-0-0-0-0-0-|-3--3-3-2--2-2-|---------------|---------------| 


     PM--------|      PM|    PM|      PM--------------------------| 
|----------------|---------------|----------------|-----------------| 
|----------------|---------------|----------------|-----------------| 
|----------------|---------------|-4--------------|-----------------| 
|-2--------------|-5------4------|-4--4-4-4-4-4-4-|-4-4-4-4-4-4-4-4-| 
|-2--2-2-2-2-2-2-|-5--5-5-4--4-4-|-2--2-2-2-2-2-2-|-2-2-2-2-2-2-2-2-| 
|-0--0-0-0-0-0-0-|-3--3-3-2--2-2-|----------------|-----------------| 


     PM--------------------------| 
|----------------|-----------------|---------------|---------------| 
|----------------|-----------------|---------------|-8--8-8-7--7-7-| 
|-5--------------|-----------------|-5--5-5-8--8-8-|---------------|Arrangement for two guitars 
|-5--5-5-5-5-5-5-|-5-5-5-5-5-5-5-5-|---------------|-5--5-5-4--4-4-| 
|-3--3-3-3-3-3-3-|-3-3-3-3-3-3-3-3-|-3--3-3-6--6-6-|---------------| 
|----------------|-----------------|---------------|---------------| 


|---------------|---------------|----------------|-----------------| 
|---------------|-8--8-8-7--7-7-|--7-8-7-8-7-8-7-|-8-7-8-7-8-7-8-7-| 
|-5--5-5-8--8-8-|---------------|----------------|-----------------| 
|---------------|-5--5-5-4--4-4-|--4-5-4-5-4-5-4-|-5-4-5-4-5-4-5-4-| 
|-3--3-3-6--6-6-|---------------|----------------|-----------------| 
|---------------|---------------|----------------|-----------------| 


                                                    7/8 
|-----------------|----------------------|---------|-----| 
|-8-7-8-7-8-7-8-7-|-8-7-8-7-8-7-(7)-(7)\-|---------|-----| 
|-----------------|----------------------|---------|-----| 
|-5-4-5-4-5-4-5-4-|-5-4-5-4-5-4-(4)-(4)\-|---------|-----| 
|-----------------|----------------------|---------|-----| 
|-----------------|----------------------|---------|-----| 


 Chorus 1 + 2 
  Sengo 
     PM--------------------------|      PM--------------------------| 
|----------------|-----------------|----------------|-----------------| 
|----------------|-----------------|----------------|-----------------| 
|----------------|-----------------|----------------|-----------------| 
|-9--------------|-----------------|-5--------------|-----------------| 
|-9--9-9-9-9-9-9-|-9-9-9-9-9-9-9-9-|-5--5-5-5-5-5-5-|-5-5-5-5-5-5-5-5-| 
|-7--7-7-7-7-7-7-|-7-7-7-7-7-7-7-7-|-3--3-3-3-3-3-3-|-3-3-3-3-3-3-3-3-| 


     PM--------------------------|      PM--------|      PM|    PM| 
|----------------|-----------------|----------------|---------------| 
|----------------|-----------------|----------------|---------------| 
|----------------|-----------------|----------------|---------------| 
|-2--------------|-----------------|-4--------------|-5------7------| 
|-2--2-2-2-2-2-2-|-2-2-2-2-2-2-2-2-|-4--4-4-4-4-4-4-|-5--5-5-7--7-7-| 
|-0--0-0-0-0-0-0-|-0-0-0-0-0-0-0-0-|-2--2-2-2-2-2-2-|-3--3-3-5--5-5-| 


     PM--------------------------|      PM--------------------------| 
|----------------|-----------------|----------------|-----------------| 
|----------------|-----------------|----------------|-----------------| 
|----------------|-----------------|----------------|-----------------| 
|-9--------------|-----------------|-5--------------|-----------------| 
|-9--9-9-9-9-9-9-|-9-9-9-9-9-9-9-9-|-5--5-5-5-5-5-5-|-5-5-5-5-5-5-5-5-| 
|-7--7-7-7-7-7-7-|-7-7-7-7-7-7-7-7-|-3--3-3-3-3-3-3-|-3-3-3-3-3-3-3-3-| 


                                                           To Coda 
     PM--------------------------|      PM--------|      PM|    PM| 
|----------------|-----------------|----------------|---------------| 
|----------------|-----------------|----------------|---------------| 
|----------------|-----------------|----------------|---------------| 
|-2--------------|-----------------|-4--------------|-5------7------| 
|-2--2-2-2-2-2-2-|-2-2-2-2-2-2-2-2-|-4--4-4-4-4-4-4-|-5--5-5-7--7-7-| 
|-0--0-0-0-0-0-0-|-0-0-0-0-0-0-0-0-|-2--2-2-2-2-2-2-|-3--3-3-5--5-5-| 


 verse 2 
|----------|---------|----------|-----| 
|----------|---------|----------|-----| 
|----------|---------|----------|-----| 
|-9--------|---------|-9--------|-----| 
|-9--------|---------|-9--------|-----| 
|-7--------|---------|-7--------|-----| 


|----------|---------|----------|-----------| 
|----------|---------|----------|-----------| 
|----------|---------|----------|-----------| 
|-5--------|---------|-2--------|-4----5----| 
|-5--------|---------|-2--------|-4----5----| 
|-3--------|---------|-0--------|-2----3----| 


|----------|---------|----------|-----| 
|----------|---------|----------|-----| 
|----------|---------|----------|-----| 
|-9--------|---------|-9--------|-----| 
|-9--------|---------|-9--------|-----| 
|-7--------|---------|-7--------|-----| 


|----------|---------|----------|-----------| 
|----------|---------|----------|-----------| 
|----------|---------|----------|-----------| 
|-5--------|---------|-2--------|-4----5----| 
|-5--------|---------|-2--------|-4----5----| 
|-3--------|---------|-0--------|-2----3----| 


     PM--------------------------------------------------------------| 
|----------------|-----------------|-----------------|-----------------| 
|----------------|-----------------|-----------------|-----------------| 
|----------------|-----------------|-----------------|-----------------| 
|-9--------------|-----------------|-----------------|-----------------| 
|-9--9-9-9-9-9-9-|-9-9-9-9-9-9-9-9-|-9-9-9-9-9-9-9-9-|-9-9-9-9-9-9-9-9-| 
|-7--7-7-7-7-7-7-|-7-7-7-7-7-7-7-7-|-7-7-7-7-7-7-7-7-|-7-7-7-7-7-7-7-7-| 


     PM--------------------------|      PM|    PM|      PM|      PM| 
|----------------|-----------------|---------------|------------------| 
|----------------|-----------------|---------------|------------------| 
|----------------|-----------------|---------------|------------------| 
|-5--------------|-----------------|-2------4------|-5------10--------| 
|-5--5-5-5-5-5-5-|-5-5-5-5-5-5-5-5-|-2--2-2-4--4-4-|-5--5-5-10--10-10-| 
|-3--3-3-3-3-3-3-|-3-3-3-3-3-3-3-3-|-0--0-0-2--2-2-|-3--3-3--8---8--8-| 


     PM--------------------------------------------------------------| 
|----------------|-----------------|-----------------|-----------------| 
|----------------|-----------------|-----------------|-----------------| 
|----------------|-----------------|-----------------|-----------------| 
|-9--------------|-----------------|-----------------|-----------------| 
|-9--9-9-9-9-9-9-|-9-9-9-9-9-9-9-9-|-9-9-9-9-9-9-9-9-|-9-9-9-9-9-9-9-9-| 
|-7--7-7-7-7-7-7-|-7-7-7-7-7-7-7-7-|-7-7-7-7-7-7-7-7-|-7-7-7-7-7-7-7-7-| 


     PM------------------------------| 
|----------------|-----------------|-----------------|-----------------| 
|----------------|-----------------|-----------------|-----------------| 
|----------------|-----------------|-----------------|-----------------| 
|-5--------------|-----------------|-----------------|-----------------| 
|-5--5-5-5-5-5-5-|-5-5-5-5-5-5-5-5-|-5---------------|-----------------| 
|-3--3-3-3-3-3-3-|-3-3-3-3-3-3-3-3-|-3---------------|-----------------| 
| 
|----------------|-----------------|-----------------|-----------------| 
|----------------|-----------------|---8-7-6-5-------|-----------------| 
|----------------|-----------------|-----------7-6-5-|-4-5-6-7-6-5-4---| 
|----------------|-----------------|---5-4-3-2-------|---------------3-| 
|----------------|-----------------|-----------5-4-3-|-2-3-4-5-4-3-2---| 
|----------------|-----------------|-----------------|---------------1-| 


 Pre-Chorus 2 
      PM--------|      PM|    PM|      PM--------------------------| 
|-----------------|---------------|----------------|------------------| 
|-----------------|---------------|----------------|------------------| 
|-----------------|---------------|-4--------------|------------------| 
|-2---------------|-5------4------|-4--4-4-4-4-4-4-|-4-4-4-4-4-4-4-4--| 
|-2---2-2-2-2-2-2-|-5--5-5-4--4-4-|-2--2-2-2-2-2-2-|-2-2-2-2-2-2-2-2--| 
|-0---0-0-0-0-0-0-|-3--3-3-2--2-2-|----------------|------------------| 
| 
| ~ 
|-----------------|---------------|----------------|------------------| 
|-----------------|---------------|----------------|------------------| 
|-----------------|---------------|----------------|------------------| 
|-2---------------|---------------|----------------|------------------| 
|-----------------|---------------|----------------|------------------| 
|-0---------------|---------------|----------------|------------------| 


     PM--------|      PM|    PM|      PM|    PM|      PM|    PM| 
|----------------|---------------|---------------|---------------| 
|----------------|---------------|---------------|---------------| 
|----------------|---------------|-4------4------|-4------4------| 
|-2--------------|-5------4------|-4------4------|-4------4------| 
|-2--2-2-2-2-2-2-|-5--5-5-4--4-4-|-2--2-2-2--2-2-|-2--2-2-2--2-2-| 
|-0--0-0-0-0-0-0-|-3--3-3-2--2-2-|---------------|---------------| 


     PM--------|      PM|    PM|      PM--------------------------| 
|----------------|---------------|----------------|-----------------| 
|----------------|---------------|----------------|-----------------| 
|----------------|---------------|-4--------------|-----------------| 
|-2--------------|-5------4------|-4--4-4-4-4-4-4-|-4-4-4-4-4-4-4-4-|Arrangement for two guitars 
|-2--2-2-2-2-2-2-|-5--5-5-4--4-4-|-2--2-2-2-2-2-2-|-2-2-2-2-2-2-2-2-| 
|-0--0-0-0-0-0-0-|-3--3-3-2--2-2-|----------------|-----------------| 


     PM--------------------------| 
|----------------|-----------------|---------------|---------------| 
|----------------|-----------------|---------------|-8--8-8-7--7-7-| 
|-5--------------|-----------------|-5--5-5-8--8-8-|---------------| 
|-5--5-5-5-5-5-5-|-5-5-5-5-5-5-5-5-|---------------|-5--5-5-4--4-4-| 
|-3--3-3-3-3-3-3-|-3-3-3-3-3-3-3-3-|-3--3-3-6--6-6-|---------------| 
|----------------|-----------------|---------------|---------------| 


|---------------|---------------|----------------|-----------------| 
|---------------|-8--8-8-7--7-7-|--7-8-7-8-7-8-7-|-8-7-8-7-8-7-8-7-| 
|-5--5-5-8--8-8-|---------------|----------------|-----------------| 
|---------------|-5--5-5-4--4-4-|--4-5-4-5-4-5-4-|-5-4-5-4-5-4-5-4-| 
|-3--3-3-6--6-6-|---------------|----------------|-----------------| 
|---------------|---------------|----------------|-----------------| 


                                               D.S. al Coda 
                                                    7/8 
|-----------------|----------------------|---------|--------| 
|-8-7-8-7-8-7-8-7-|-8-7-8-7-8-7-(7)-(7)\-|---------|--------| 
|-----------------|----------------------|---------|--------| 
|-5-4-5-4-5-4-5-4-|-5-4-5-4-5-4-(4)-(4)\-|---------|--------| 
|-----------------|----------------------|---------|--------| 
|-----------------|----------------------|---------|--------| 


 Bridge 
  Coda 
 4/4 
     PM--------------------------|      PM--------------------------| 
|----------------|-----------------|----------------|------------------| 
|----------------|-----------------|----------------|------------------| 
|----------------|-----------------|----------------|------------------| 
|-5--------------|-----------------|-9--------------|------------------| 
|-5--5-5-5-5-5-5-|-5-5-5-5-5-5-5-5-|-9--9-9-9-9-9-9-|-9-9-9-9-9-9-9-9--| 
|-3--3-3-3-3-3-3-|-3-3-3-3-3-3-3-3-|-7--7-7-7-7-7-7-|-7-7-7-7-7-7-7-7--| 


     PM------------------------|         PM--------|         PM--------| 
|----------------|-----------------|-------------------|-------------------| 
|----------------|-----------------|-------------------|-------------------| 
|----------------|-----------------|-------------------|-------------------| 
|-5--------------|---------------9-|-(9)-------------7-|-(7)-------------5-| 
|-5--5-5-5-5-5-5-|-5-5-5-5-5-5-5-9-|-(9)-9-9-9-9-9-9-7-|-(7)-7-7-7-7-7-7-5-| 
|-3--3-3-3-3-3-3-|-3-3-3-3-3-3-3-7-|-(7)-7-7-7-7-7-7-5-|-(5)-5-5-5-5-5-5-3-| 


      PM----------------------------|      PM--------------------------| 
|-------------------|-----------------|----------------|-----------------| 
|-------------------|-----------------|----------------|-----------------| 
|-------------------|-----------------|----------------|-----------------| 
|-(5)---------------|-----------------|-9--------------|-----------------| 
|-(5)-5-5-5-5-5-5-5-|-5-5-5-5-5-5-5-5-|-9--9-9-9-9-9-9-|-9-9-9-9-9-9-9-9-| 
|-(3)-3-3-3-3-3-3-3-|-3-3-3-3-3-3-3-3-|-7--7-7-7-7-7-7-|-7-7-7-7-7-7-7-7-| 


     PM--------|      PM--------|      PM--------|      PM--------| 
|----------------|----------------|----------------|----------------| 
|----------------|----------------|----------------|----------------| 
|----------------|----------------|----------------|----------------| 
|-5--------------|-7--------------|-9--------------|-7--------------| 
|-5--5-5-5-5-5-5-|-7--7-7-7-7-7-7-|-9--9-9-9-9-9-9-|-7--7-7-7-7-7-7-| 
|-3--3-3-3-3-3-3-|-5--5-5-5-5-5-5-|-7--7-7-7-7-7-7-|-5--5-5-5-5-5-5-| 


     PM--------|      PM--------|      PM--------|      PM--------| 
|----------------|----------------|----------------|----------------| 
|----------------|----------------|----------------|----------------| 
|----------------|----------------|----------------|----------------| 
|-5--------------|-7--------------|-9--------------|-7--------------| 
|-5--5-5-5-5-5-5-|-7--7-7-7-7-7-7-|-9--9-9-9-9-9-9-|-7--7-7-7-7-7-7-| 
|-3--3-3-3-3-3-3-|-5--5-5-5-5-5-5-|-7--7-7-7-7-7-7-|-5--5-5-5-5-5-5-| 


     PM--------|      PM--------|      PM--------|      PM--------| 
|----------------|----------------|----------------|----------------| 
|----------------|----------------|----------------|----------------| 
|----------------|----------------|----------------|----------------| 
|-5--------------|-7--------------|-9--------------|-7--------------| 
|-5--5-5-5-5-5-5-|-7--7-7-7-7-7-7-|-9--9-9-9-9-9-9-|-7--7-7-7-7-7-7-| 
|-3--3-3-3-3-3-3-|-5--5-5-5-5-5-5-|-7--7-7-7-7-7-7-|-5--5-5-5-5-5-5-| 


 Guitar Solo 2 
  Gtrs I, II 
|-----------------|-------------------------------| 
|--------------12-|-14-15-(15)-14-(14)-12-14-(14)-| 
|-----------------|-------------------------------| 
|-----------------|-------------------------------| 
|-----------------|-------------------------------| 
|-----------------|-------------------------------| 
| 
| Gtr III 
|    PM--------|            PM-|           PM| 
|-----------------|-------------------------------| 
|-----------------|-------------------------------| 
|-----------------|-------------------------------| 
|-2---------------|--5--------------4-------------| 
|-2--2-2-2-2-2--2-|--5------5---5---4------4---4--| 
|-0--0-0-0-0-0--0-|--3------3---3---2------2---2--| 


|------------------------|--------------------| 
|-12------(12)-----------|--------------------| 
|--------------11-(11)---|-(11)---------------| 
|------------------------|--------------------| 
|------------------------|--------------------| 
|------------------------|--------------------| 
| 
|     PM------------------------------------| 
|------------------------|--------------------| 
|------------------------|--------------------| 
|--4---------------------|--------------------| 
|--4--4-4---4---4---4--4-|---4--4-4-4-4-4-4-4-| 
|--2--2-2---2---2---2--2-|---2--2-2-2-2-2-2-2-| 
|------------------------|--------------------| 


|---------------------|-----------------------| 
|------------------14-|---15-(15)-14-12--14---| 
|-(11)\---------------|-----------------------| 
|---------------------|-----------------------| 
|---------------------|-----------------------| 
|---------------------|-----------------------| 
| 
|        PM--------|           PM-|       PM| 
|---------------------|-----------------------| 
|---------------------|-----------------------| 
|---------------------|-----------------------| 
|---2-----------------|-5-------------4-------| 
|---2----2-2-2-2-2--2-|-5------5---5--4---4-4-| 
|---0----0-0-0-0-0--0-|-3------3---3--2---2-2-| 


   ~~~~~~~~~~~~~~~~~~~~~ 
|----------------|------------------| 
|-12-------------|-(12)-------------| 
|----------------|------------------| 
|----------------|------------------| 
|----------------|------------------| 
|----------------|------------------| 
| 
|     PM|    PM|         PM|    PM| 
|----------------|------------------| 
|----------------|------------------| 
|--4------4------|---4-------4------| 
|--4------4------|---4-------4------| 
|--2--2-2-2--2-2-|---2---2-2-2--2-2-| 
|----------------|------------------| 


           Gtr I 
|-----------------------|-------------------| 
|-(12)\----12---12-14---|-15--14---12--14---| 
|-----------------------|-------------------| 
|-----------------------|-------------------| 
|-----------------------|-------------------| 
|-----------------------|-------------------| 
| 
|          Gtr II 
|-----------------------|-------------------| 
|----------12---12-14---|-15--14---12--14---| 
|-----------------------|-------------------| 
|-----------------------|-------------------| 
|-----------------------|-------------------| 
|-----------------------|-------------------| 
| 
| Gtr III 
|        PM-----------|        PM|      PM| 
|-----------------------|-------------------| 
|-----------------------|-------------------| 
|-----------------------|-------------------| 
|---2-------------------|--5--------4-------| 
|---2----2--2-2--2--2-2-|--5---5-5--4---4-4-| 
|---0----0--0-0--0--0-0-|--3---3-3--2---2-2-| 


|------------------------|-------------------------| 
|-12------(12)-----------|-------------------------| 
|--------------11-(11)---|-(11)-------(11)-11-11---| 
|------------------------|-------------------------| 
|------------------------|-------------------------| 
|------------------------|-------------------------| 
| 
|------------------------|-------------------------| 
|-12------(12)-----------|-------------------------| 
|--------------11-(11)---|-(11)--------------------| 
|------------------------|-------------------------| 
|------------------------|-------------------------| 
|------------------------|-------------------------| 
| 
|     PM-----------------------------------------| 
|------------------------|-------------------------| 
|------------------------|-------------------------| 
|--4---------------------|-------------------------| 
|--4--4-4---4---4---4--4-|---4--4-4-4---4---4--4-4-| 
|--2--2-2---2---2---2--2-|---2--2-2-2---2---2--2-2-| 
|------------------------|-------------------------| 


|----------------------|-------------------------| 
|----------------------|-----------------17-17---| 
|-12-------------------|-(12)-------(12)---------| 
|----------------------|-------------------------| 
|----------------------|-------------------------| 
|----------------------|-------------------------| 
| 
|----------------------|-------------------------| 
|--------------12-12---|--12---------------------| 
|-11------(11)---------|-------------------------| 
|----------------------|-------------------------| 
|----------------------|-------------------------| 
|----------------------|-------------------------| 
| 
|     PM---------------------------------------| 
|----------------------|-------------------------| 
|----------------------|-------------------------| 
|--5-------------------|-------------------------| 
|--5--5-5---5---5--5-5-|---5--5-5-5---5---5--5-5-| 
|--3--3-3---3---3--3-3-|---3--3-3-3---3---3--3-3-| 
|----------------------|-------------------------| 


|----------------|------------------| 
|-16-------------|-(16)-------------| 
|----------------|------------------| 
|----------------|------------------| 
|----------------|------------------| 
|----------------|------------------| 
| 
|----------------|------------------| 
|-16-------------|-(16)-------------| 
|----------------|------------------| 
|----------------|------------------| 
|----------------|------------------| 
|----------------|------------------| 
| 
|----------------|------------------| 
|----------------|---8---8-8-7--7-7-| 
|--5--5-5-8--8-8-|------------------|Arrangement for two guitars 
|----------------|---5---5-5-4--4-4-| 
|--3--3-3-6--6-6-|------------------| 
|----------------|------------------| 


|-----------------|-----------------| 
|-17------16------|-12--------------| 
|-----------------|---------12------| 
|-----------------|-----------------| 
|-----------------|-----------------| 
|-----------------|-----------------| 
| 
|-----------------|-----------------| 
|-17------16------|-12--------------| 
|-----------------|---------12------| 
|-----------------|-----------------| 
|-----------------|-----------------| 
|-----------------|-----------------| 
| 
|-----------------|-----------------| 
|-----------------|--8--8-8--7--7-7-| 
|--5--5-5--8--8-8-|-----------------| 
|-----------------|--5--5-5--4--4-4-| 
|--3--3-3--6--6-6-|-----------------| 
|-----------------|-----------------| 


|-14---15-14-15-14-15-14-|-15-14-15-14-15-14-15-14-| 
|------------------------|-------------------------| 
|------------------------|-------------------------| 
|------------------------|-------------------------| 
|------------------------|-------------------------| 
|------------------------|-------------------------| 
| 
|------------------------|-------------------------| 
|------------------------|-------------------------| 
|-11---12-11-12-11-12-11-|-12-11-12-11-12-11-12-11-| 
|------------------------|-------------------------| 
|------------------------|-------------------------| 
|------------------------|-------------------------| 
| 
|------------------------|-------------------------| 
|----7--8--7--8--7--8--7-|--8--7--8--7--8--7--8--7-| 
|------------------------|-------------------------| 
|----4--5--4--5--4--5--4-|--5--4--5--4--5--4--5--4-| 
|------------------------|-------------------------| 
|------------------------|-------------------------| 


                                                                    7/8 
|-15-14-15-14-15-14-15-14-|-15-14-15-14-15-14-(14)-(14)\-|---------|-----| 
|-------------------------|------------------------------|---------|-----| 
|-------------------------|------------------------------|---------|-----| 
|-------------------------|------------------------------|---------|-----| 
|-------------------------|------------------------------|---------|-----| 
|-------------------------|------------------------------|---------|-----| 
| 
|-------------------------|------------------------------|---------|-----| 
|-------------------------|------------------------------|---------|-----| 
|-12-11-12-11-12-11-12-11-|-12-11-12-11-12-11-(11)-(11)\-|---------|-----| 
|-------------------------|------------------------------|---------|-----| 
|-------------------------|------------------------------|---------|-----| 
|-------------------------|------------------------------|---------|-----| 
| 
|-------------------------|------------------------------|---------|-----| 
|--8--7--8--7--8--7--8--7-|--8--7--8--7--8--7--(7)--(7)\-|---------|-----| 
|-------------------------|------------------------------|---------|-----| 
|--5--4--5--4--5--4--5--4-|--5--4--5--4--5--4--(4)--(4)\-|---------|-----| 
|-------------------------|------------------------------|---------|-----| 
|-------------------------|------------------------------|---------|-----| 


 Chorus 
  Gtrs I, II 
     PM--------------------------|      PM--------------------------| 
|----------------|-----------------|----------------|-----------------| 
|----------------|-----------------|----------------|-----------------| 
|----------------|-----------------|----------------|-----------------| 
|-9--------------|-----------------|-5--------------|-----------------| 
|-9--9-9-9-9-9-9-|-9-9-9-9-9-9-9-9-|-5--5-5-5-5-5-5-|-5-5-5-5-5-5-5-5-| 
|-7--7-7-7-7-7-7-|-7-7-7-7-7-7-7-7-|-3--3-3-3-3-3-3-|-3-3-3-3-3-3-3-3-| 


     PM--------------------------|      PM--------|      PM|    PM| 
|----------------|-----------------|----------------|---------------| 
|----------------|-----------------|----------------|---------------| 
|----------------|-----------------|----------------|---------------| 
|-2--------------|-----------------|-4--------------|-5------7------| 
|-2--2-2-2-2-2-2-|-2-2-2-2-2-2-2-2-|-4--4-4-4-4-4-4-|-5--5-5-7--7-7-| 
|-0--0-0-0-0-0-0-|-0-0-0-0-0-0-0-0-|-2--2-2-2-2-2-2-|-3--3-3-5--5-5-| 


     PM--------------------------|      PM--------------------------| 
|----------------|-----------------|----------------|-----------------| 
|----------------|-----------------|----------------|-----------------| 
|----------------|-----------------|----------------|-----------------| 
|-9--------------|-----------------|-5--------------|-----------------| 
|-9--9-9-9-9-9-9-|-9-9-9-9-9-9-9-9-|-5--5-5-5-5-5-5-|-5-5-5-5-5-5-5-5-| 
|-7--7-7-7-7-7-7-|-7-7-7-7-7-7-7-7-|-3--3-3-3-3-3-3-|-3-3-3-3-3-3-3-3-| 


     PM--------------------------| 
|----------------|-----------------| 
|----------------|-----------------| 
|----------------|-----------------| 
|-2--------------|-----------------| 
|-2--2-2-2-2-2-2-|-2-2-2-2-2-2-2-2-| 
|-0--0-0-0-0-0-0-|-0-0-0-0-0-0-0-0-| 


                                        2/4 
     PM--------| 
|----------------|----------|----------|-----*| 
|----------------|----------|----------|-----*| 
|----------------|----------|----------|-----*| 
|-4--------------|-5--------|-7--------|-----*| 
|-4--4-4-4-4-4-4-|-5--------|-7--------|-----*| 
|-2--2-2-2-2-2-2-|-3--------|-5--------|-----*| 


Tablature Legend 
---------------- 
 h   - hammer-on 
 p   - pull-off 
 b   - bend 
 pb  - pre-bend 
 r   - bend release (if no number after the r, then release immediately) 
 /\  - slide into or out of (from/to "nowhere") 
 s   - legato slide 
 S   - shift slide 
  - natural harmonic 
n  - artificial harmonic 
n(n) - tapped harmonic 
 ~   - vibrato 
 tr  - trill 
 T   - tap 
 TP  - trem. picking 
 PM  - palm muting 
\n/  - tremolo bar dip; n = amount to dip 
 \n  - tremolo bar down 
 n/  - tremolo bar up 
/n\  - tremolo bar inverted dip 
 =   - hold bend; also acts as connecting device for hammers/pulls 
 <>  - volume swell (louder/softer) 
 x   - on rhythm slash represents muted slash 
 o   - on rhythm slash represents single note slash 

Misc Legend 
----------- 
 |  - bar 
||  - double bar 
||o - repeat start 
o|| - repeat end 
*|  - double bar (ending) 
 :  - bar (freetime) 
		  

Full key step upFull key step up
Half key step upHalf key step up
Half key step downHalf key step down
Full key step downFull key step down
hide glossary

See also:

tabs Deep Purple - Strange kind of woman tabs Deep Purple - Smoke On The Water tabs Deep Purple - Time To Kill tabs Albert Hammond Jr - Gfc tabs Deep Purple - Soldier Of Fortune tabs Ira! - Nucleo De Base
e-chords

Other versions:

tabs Jeff Williams - Red Like Roses Part Ii
auto scroll beats size up size down change color hide chords drawings
tab show chords e-chords YouTube Clip e-chords hide all tabs e-chords go to top tab

share