Javier Calamaro

home > Javier Calamaro

Imagenes Paganas (completa) Tab

Javier Calamaro

Difficulty: BeginnerBeginner

by kcobain7

tuner correct add songbook print version text version save to e-mail
chordsukulelecavacokeyboardtabbassdrumsharmonicsflute Guitar Pro
chords

Imagenes Paganas (completa)

  		Un cover de virus...muy bueno!!, esta es la misma version q la q postie antes pero me faltaron unos detalles: 
tocarlo con dos guitarras como indico suena de 10! cualquier comentario, sugerencia o queja 
(sera bien recibido) a [email protected] 
 
Riff 1 
            Em          C     D 
e ------------------|---------------|----------------|	 
A ------------------|---------------|----------------|	 
D ------------------|---------------|----------------|	 
G --------0-2-------|---------------|--------0-2-----|	 
B ---0-2------------|---0-3---3-5---|---0-2----------|	 
E -------------0----|---------------|-------------0--|	 
 
------>(2da guitarra haga riff 1, mientra la otra rasguea) 
   Em                C     D 
   Vengo agotado de cantar en la niebla 
   Em                        C     D 
   por la autopista junto al mar hay gitanos 
   Em                  C     D 
   Van celebrando un ritual ignorado 
   Em                        C    D 
   Mis propias luces ya no están espejismos 
 
 
ESTRIBILLO:					Riff 2 (segunda guitarra) 
G       C(riff 2)    G        C(riff 2)		e|-------------| 
   Remolino mezcla los besos y la ausencia	B|-------------|	 
G       C(riff 2)    G        C(riff 2) Em	G|-------7-----| 
   Imágenes paganas se desnudan en sueños	D|---5---------| 
						A|-------------| 
Punteada: (Base)				E|-------------| 
 Em-C-D x 2 
e -------------|-------------------- 
B ---7--5------|-5------------------ 
G ---------4---|----7--5------------ 
D -------------|-----------5-5/7---- 
A -------------|-------------------- 
E -------------|-------------------- 
 
------>(2da guitarra haga riff 1, mientra la otra rasguea) 
   Em           C           D 
   En el espejo reflejos viajeros 
   Em                C       D 
   Un apagón sentimental la ruta pasa. 
   Em                         C    D 
   Vuelve el deseo y la ansiedad de este cuerpo 
   Em                   C     D 
   mi boca quiere pronunciar el silencio. 
 
 
ESTRIBILLO:					Riff 2 (segunda guitarra) 
G       C(riff 2)    G        C(riff 2)		e|-------------| 
   Remolino mezcla los besos y la ausencia	B|-------------|	 
G       C(riff 2)    G        C(riff 2) Em	G|-------7-----| 
   Imágenes paganas se desnudan en sueños	D|---5---------| 
						A|-------------| 
						E|-------------| 
 
Punteada: 
 Em C D x 4 
 
REPITE ESTRIBILLO x 3 
 
 
Solo 
e ----------------------------------------------10---10----10--10--12--14--| 
B ---7--5---7--5---7-7-8--10---8--10---10-10--12---12----12----------------| 
G -------------------------------------------------------------------------| 
D -------------------------------------------------------------------------| 
A -------------------------------------------------------------------------| 
E -------------------------------------------------------------------------| 
 
Dani V. 

	  

Full key step upFull key step up
Half key step upHalf key step up
Half key step downHalf key step down
Full key step downFull key step down
Search Paypal
auto scroll beats size up size down change color hide chords drawings
tab show chords e-chords YouTube Clip e-chords hide all tabs e-chords go to top tab