Jason Mraz

home > Jason Mraz

Frank D Fixer Tab

Jason Mraz

Difficulty: nolevelnolevel

by PAULLET3

tuner correct add songbook print version text version save to e-mail
chordsukulelecavacokeyboardtabbassdrumsharmonicsflute Guitar Pro
chords

Frank D Fixer

  		

--Chords:-- 

Intro: G 

Verse: G   Em   C 

Pre-Chorus: C#m7/b5  C   G 

Chorus: C,   D,   G, 
        C,   D,   Em, 
        C,   D,   G,A7, 
        C,   D,   G, 

Bridge: in the tab 

Outro: G 



---Tab-- 

Intro: 
     Note: Palm Mute 

e|---------------------------------------------------------------------------| 
B|---------------------------------------------------------------------------| 
G|-------0--0-0--0-0-0-0-0---------------------------------------------------| 
D|---------------------------------------------------------------------------| 
A|---------------------------------------------------------------------------| 
E|-----3---------------------------------------------------------------------| 


verse 2x: 
     Note: Palm Mute 

e|-----------------------------------------------------------------------------| 
B|-----------------------------------------------------------------------------| 
G|----0-0-0-0-0-0-0-0----0-0-0-0-0-0-0-0----0-0-0-0-0-0-0-0---0-0-0-0-0-0-0-0--| 
D|-----------------------------------------------------------------------------| 
A|----------------------------------------3------------------------------------| 
E|-3------------------0-------------------------------------3------------------| 

   Lyrics: 
     Frank D. Fixer was a handy man 
     He could handle everything, he was my granddad 
     He grew his own food and he could fix his own car 
     I watched it all happen, in our backyard 


Pre-Chorus(2x): 
     Note: Palm Mute 
           First time: play Part A  (Ending= G chord) 
           Second time: play Part B (Ending= C chord) 

e|----------------------------------------|----------------------| 
B|----------------------------------------|----------------------| 
G|----0-0-0-0-0-0-0-0----0-0-0-0-0-0-0-0--|-----0-0-0-0-0-0-0-0--| 
D|----------------------------------------|----------------------| 
A|4--------------------3------------------|(B)3------------------| 
E|----------------------------------------|(A)3------------------| 

   Lyrics: 
     He'd reinvent the part to fix the broken home 
     He restored the heart 


Chorus: 
     Note: I'll just give you the chords here 

e|----0---0------3---3-------------------------------------------------------| 
B|----1---3------3---3-------------------------------------------------------| 
G|----0---0------0---0-------------------------------------------------------| 
D|----2---4------0---0-------------------------------------------------------| 
A|----3---5------2---2-------------------------------------------------------| 
E|---------------3---3-------------------------------------------------------| 

   Lyrics: 
     I wish I was a fixer 


e|----0---0------0---0-------------------------------------------------------| 
B|----1---3------0---0-------------------------------------------------------| 
G|----0---0------0---0-------------------------------------------------------| 
D|----2---4------2---4-------------------------------------------------------| 
A|----3---5------2---2-------------------------------------------------------| 
E|---------------0---0-------------------------------------------------------| 

   Lyrics: 
     I would fix you up inside 


e|----0---0------3---0--------------------------------------------------------| 
B|----1---3------3---2--------------------------------------------------------| 
G|----0---0------0---0--------------------------------------------------------| 
D|----2---4------0---2--------------------------------------------------------| 
A|----3---5----------0--------------------------------------------------------| 
E|---------------3------------------------------------------------------------| 

   Lyrics: 
     I would build you a town, if the world fell down 

e|----0---0------------------------------------------------------------------| 
B|----1---3------------------------------------------------------------------| 
G|----0---0---------0-0-0-0-0-0-0-0------------------------------------------| 
D|----2---4------------------------------------------------------------------| 
A|----3---5------------------------------------------------------------------| 
E|---------------3-----------------------------------------------------------| 

   Lyrics: 
     I wish i was that guy 

Verse (2x): 
     Note: Palm Mute 

e|-----------------------------------------------------------------------------| 
B|-----------------------------------------------------------------------------| 
G|----0-0-0-0-0-0-0-0----0-0-0-0-0-0-0-0----0-0-0-0-0-0-0-0---0-0-0-0-0-0-0-0--| 
D|-----------------------------------------------------------------------------| 
A|----------------------------------------3------------------------------------| 
E|-3------------------0-------------------------------------3------------------| 

   Lyrics: 
     If Frank D. Fixer were alive today 
     Well he may laugh at me and he may have a lot to say 
     Well he might ask if I keep working for the family 
     To keep the bills all paid and be his protégé 



Pre-Chorus(2x): 
     Note: Palm Mute 
           First time: play Part A  (Ending= G chord) 
           Second time: play Part B (Ending= C chord) 

e|----------------------------------------|----------------------| 
B|----------------------------------------|----------------------| 
G|----0-0-0-0-0-0-0-0----0-0-0-0-0-0-0-0--|-----0-0-0-0-0-0-0-0--| 
D|----------------------------------------|----------------------| 
A|4--------------------3------------------|(B)3------------------| 
E|----------------------------------------|(A)3------------------| 

   Lyrics: 
     What happened to the ground right where we are? 
     What happened to the family farm? 


Chorus: 
     Note: I'll just give you the chords here. 

e|----0---0------3---3-------------------------------------------------------| 
B|----1---3------3---3-------------------------------------------------------| 
G|----0---0------0---0-------------------------------------------------------| 
D|----2---4------0---0-------------------------------------------------------| 
A|----3---5------2---2-------------------------------------------------------| 
E|---------------3---3-------------------------------------------------------| 

   Lyrics: 
     I wish I was a fixer 


e|----0---0------0---0-------------------------------------------------------| 
B|----1---3------0---0-------------------------------------------------------| 
G|----0---0------0---0-------------------------------------------------------| 
D|----2---4------2---4-------------------------------------------------------| 
A|----3---5------2---2-------------------------------------------------------| 
E|---------------0---0-------------------------------------------------------| 

   Lyrics: 
     I would fix you up inside 


e|----0---0------3---0--------------------------------------------------------| 
B|----1---3------3---2--------------------------------------------------------| 
G|----0---0------0---0--------------------------------------------------------| 
D|----2---4------0---2--------------------------------------------------------| 
A|----3---5----------0--------------------------------------------------------| 
E|---------------3------------------------------------------------------------| 

   Lyrics: 
     I would build you a town, if the world fell down 

e|----0---0------------------------------------------------------------------| 
B|----1---3------------------------------------------------------------------| 
G|----0---0---------0-0-0-0-0-0-0-0------------------------------------------| 
D|----2---4------------------------------------------------------------------| 
A|----3---5------------------------------------------------------------------| 
E|---------------3-----------------------------------------------------------| 

   Lyrics: 
     I wish i was that guy 


Bridge: 

(2x) 
e|----------------(3)---------------------------------------------------------------| 
B|----0----0---0---1----------------------------------------------------------------| 
G|----0----0---0---0----------------------------------------------------------------| 
D|----2----2---0---2----------------------------------------------------------------| 
A|-----------------3----------------------------------------------------------------| 
E|---0---2---3----------------------------------------------------------------------| 

   Lyrics: 
     Every evening breaking bread 
     He showed us who a real man is 


e|----------------------------------------| 
B|----------------------------------------| 
G|----0-0-0-0-0-0-0-0----0-0-0-0-0-0-0-0--| 
D|----------------------------------------| 
A|4--------------------3------------------| 
E|----------------------------------------| 

   Lyrics: 
     No matter what my grandma sayd 
     He would never lose his head 

e|---------------------------0-0-0-----------| 
B|---------------------------0-0-0-----------| 
G|----0-0-0-0-0-0-0-0----0-0-0-0-0-----------| 
D|----5-5-5-5-5-5-5-5----5-5-5-5-5-----------| 
A|4--------------------3-----3-3-3-----------| 
E|-------------------------------------------| 

   Lyrics: 
     He would never lose his heeeeeeead 

Chorus: 
     Note: I'll just give you the chords here. 

e|----0---0------3---3-------------------------------------------------------| 
B|----1---3------3---3-------------------------------------------------------| 
G|----0---0------0---0-------------------------------------------------------| 
D|----2---4------0---0-------------------------------------------------------| 
A|----3---5------2---2-------------------------------------------------------| 
E|---------------3---3-------------------------------------------------------| 

   Lyrics: 
     I wish I was a fixer 


e|----0---0------0---0-------------------------------------------------------| 
B|----1---3------0---0-------------------------------------------------------| 
G|----0---0------0---0-------------------------------------------------------| 
D|----2---4------2---4-------------------------------------------------------| 
A|----3---5------2---2-------------------------------------------------------| 
E|---------------0---0-------------------------------------------------------| 

   Lyrics: 
     I would fix you up inside 


e|----0---0------3---0--------------------------------------------------------| 
B|----1---3------3---2--------------------------------------------------------| 
G|----0---0------0---0--------------------------------------------------------| 
D|----2---4------0---2--------------------------------------------------------| 
A|----3---5----------0--------------------------------------------------------| 
E|---------------3------------------------------------------------------------| 

   Lyrics: 
     I would build you a town, if the world fell down 

e|----0---0------------------------------------------------------------------| 
B|----1---3------------------------------------------------------------------| 
G|----0---0---------0-0-0-0-0-0-0-0------------------------------------------| 
D|----2---4------------------------------------------------------------------| 
A|----3---5------------------------------------------------------------------| 
E|---------------3-----------------------------------------------------------| 

   Lyrics: 
     I wish i was that guy 



Outro: 

e|--3-3-3-3---3-3-3-3---3-3-3-3----------------------------------------------| 
B|--0-1-2-2h3-3-3-3-2h3-3-3-3-2h3--------------------------------------------| 
G|--0-0-0-0---0-----0---0-----0----------------------------------------------| 
D|---------------------------------------------------------------------------| 
A|---------------------------------------------------------------------------| 
E|--3------------------------------------------------------------------------| 


************************************ 

| /   slide up 
| \   slide down 
| h   hammer-on 
| p   pull-off 
| ~   vibrato 
| +   harmonic 
| x   Mute note 
| b   Bend 
| pb  Pre-bend 
| br  Bend release 
| pbr Pre-bend release 
| brb Bend release bend 

************************************ 
	  

Full key step upFull key step up
Half key step upHalf key step up
Half key step downHalf key step down
Full key step downFull key step down
Search Paypal
auto scroll beats size up size down change color hide chords drawings
tab show chords e-chords YouTube Clip e-chords hide all tabs e-chords go to top tab