Jan Hegenberg

home > Jan Hegenberg

In Den Nebeln Tab

Jan Hegenberg

Difficulty: nolevelnolevel

by jessgomes

tuner correct add songbook print version text version save to e-mail
chordsukulelecavacokeyboardtabbassdrumsharmonicsflute Guitar Pro
chords

In Den Nebeln

	  Intro 

e|--0h2--3-----3h2p0-------|------------------------|--0--2--3----/10----5--|--3--2-----0-------------| 
B|------------------h3--0--|--0h3--5-----5p3-----7--|--------------------3--|--------3-----3-----3----| 
G|-------------------------|------------------4-----|-----------------------|-----------------0-------| 
D|-------------------------|------------------------|-----------------------|--------------------0----| 
A|-------------------------|-------3-------------5--|-----------------------|--------3----------------| 
E|-------0--------------3--|------------------------|--------0-----------3--|-------------------------| 

e|--0--2--3-----3h2p0-------|------------------------|--0--2--3----/10----7--|--5--3--2--3p2p0-----0--| 
B|-------------------h3--0--|--0h3--5-----5p3-----7--|--------------------5--|--3---------------3--0--| 
G|--------------------------|------------------4-----|-----------------------|---------------------0--| 
D|--------------------------|------------------------|-----------------------|---------------------2--| 
A|--------------------------|-------3-------------5--|--------------------3--|--2-----0------------2--| 
E|--------0--------------3--|------------------------|--------0--------------|---------------------0--| 



************************************ 

| h  Hammer-on 
| p  Pull-off 
| /  Slide up 

************************************ 
	  

there isn't a video lesson for this song

request
Search Paypal
auto scroll beats size up size down change color hide chords drawings
tab show chords e-chords YouTube Clip e-chords hide all tabs e-chords go to top tab