iOTA

6 Feet Become 9

iOTA

tabs

save to print version add songbook text version e-mail correct tuner
chordsukulelecavacokeyboardtabbassdrumsharmonicaflute Guitar Pro
close

there isn't a video lesson for this song

chords

6 Feet Become 9

	  		Tuning : Standard EADGBE 
  
Intro/verses: 
  
E-----0-------------------0-------------------- 
B-----0-------------------0-------------------- 
G-----0-------------------0-------------------- 
D-----x-------------------x-------------------- 
A-----7--7--7--7--7-------7--7--7--7--7-------- 
E-----5--4--5--4--0-------5--4--5--4--0-------- 
  
Next part: 
  
   'I couldn't answer your questions'  
E----0---------------------0------------------ 
B----1---------------------3------------------ 
G----0---------------------0------------------ 
D----2---------------------4------------------ 
A----3---------------------5------------------ 
E----0---------------------0------------------ 
	 
  'If I		         tried' 
E-------0--0--0--0----------0--0--0--0-------- 
B-------0--0--0--0----------0--0--0--0-------- 
G-------x--x--x--x----------x--x--x--x-------- 
D-------2--2--2--2----------2--2--2--2-------- 
A-------0--0--0--x----------0--0--0--x-------- 
E-------x--x--x--3----------x--x--x--3-------- 
  
Chorus: 
  
   'Bless you all, 6 feet become 9' 
E---0-------------0--------------0-------------- 
B---1-------------3--------------0-------------- 
G---0-------------0--------------0-------------- 
D---2-------------4--------------x-------------- 
A---3-------------5--------------7--7--7--7--7-- 
E---0-------------0--------------5--4--5--4--0-- 
  
Second verse is the same, but when it gets to 'Bless you all' again there's a cool series  
of chords that lead to the end.  There is only two chord shapes you need to use -  
an open C and an open G - you just slide them around to get the different chords... 
  
   'Bless you all, 6 feet become nii...    ...ine' 
E---0-------------0--------------3----------5--- 
B---1-------------3--------------3----------5--- 
G---0-------------0--------------0----------0--- 
D---2-------------4--------------0----------0--- 
A---3-------------5--------------2----------4--- 
E---0-------------0--------------3----------5--- 
  
   'Bless you all, 6 feet become nii...    ...ine' 
E---8-------------10---------------0--------0--- 
B---8-------------10---------------8-------10--- 
G---0--------------0---------------0--------0--- 
D---0--------------0---------------9-------11--- 
A---7--------------9--------------10-------12--- 
E---8-------------10---------------x--------x--- 
  
   'Bless you all, 6 feet become nii...    ...ine' 
E---0-------------0--------------3----------5--- 
B---1-------------3--------------3----------5--- 
G---0-------------0--------------0----------0--- 
D---2-------------4--------------0----------0--- 
A---3-------------5--------------2----------4--- 
E---0-------------0--------------3----------5--- 
  
   'heeeeeeeeeeeeeeyyyyy' 
E---8-------------10--------- 
B---8-------------10--------- 
G---0--------------0--------- 
D---0--------------0--------- 
A---7--------------9--------- 
E---8-------------10--------- 
  
Then repeat that intro riff 3 more times before a quick ending with either of the following... 
  
Ending 1  
E-------0--0--0--0-------- 
B-------0--0--0--0-------- 
G-------x--x--x--x-------- 
D-------2--2--2--2-------- 
A-------0--0--0--x-------- 
E-------x--x--x--3-------- 
  
Or try this... 
  
Ending 2 
E-------0--0--0----------- 
B-------0--0--0----------- 
G-------0--0--0----------- 
D-------x--x--x----------- 
A-------7--7--7--x-------- 
E-------5--5--5--3-------- 
  
And you're done! 
  
Tabbed by Drew - [email protected] 
		  

Full key step upFull key step up
Half key step upHalf key step up
Half key step downHalf key step down
Full key step downFull key step down
hide glossary

See also:

tabs The Beautiful Girls - Blackbird tabs Joss Stone - Super Duper Love tabs INXS - Heaven Sent tabs Beaverloop - Funkywrench tabs Blackman Bertie - Favourite Jeans tabs Baby Animals - Don't Tell Me What To Do
e-chords

Other versions:

tabs iOTA - 6 Feet Become 9
auto scroll beats size up size down change color hide chords drawings
tab show chords e-chords YouTube Clip e-chords hide all tabs e-chords go to top tab

share