Hot Mulligan

Og Bule Sky

Hot Mulligan

tabs

by  LINEKERS

save to print version add songbook text version e-mail correct tuner
chordsukulelecavacokeyboardtabbassdrumsharmonicaflute Guitar Pro
close

there isn't a video lesson for this song

chords

Og Bule Sky

	  		Tuning: D A C G C e 

 

Tab is in reference to the CAPO so 0 = fret 3. 



Intro 

Guitar 1 
E|------------3p0-----0h1p0-----0-------------------------------------0----| 
C|----0h2p0-------0---------0h2---2p0-------------0-------0-----0-------0--| 
G|----------0-------------------------0---0h2p0-----0-------0-----0--------| x4 
C|------------------------------------------------------------0-----0------| 
A|--3-----------------------------------0-------0-----0--------------------| 
D|------------------3-----------------------------------3------------------| 

Guitar 2 
E|----------------------1p0-------------------------------1p0--------------| 
C|------------2p0-----------2p0-4\2p0-------------2p0---------2p0-------0--| 
G|----------0-----0-------------------0---0h2p0-0-----0-----------0h2/4----| x4 
C|----0h2h4----------------------------------------------------------------| 
A|-------------------------------------------------------------------------| 
D|-------------------------------------------------------------------------| 



Verse 

Guitar 1 
E|------------3p0-----0h1p0-----0-------------------------------------0----| 
C|----0h2p0-------0---------0h2---2p0-------------0-------0-----0-------0--| 
G|----------0-------------------------0---0h2p0-----0-------0-----0--------| x4 
C|------------------------------------------------------------0-----0------| 
A|--3-----------------------------------0-------0-----0--------------------| 
D|------------------3-----------------------------------3------------------| 

Guitar 2 
E|------------------------------1p0---------------------------------3p0------| 
C|----0h2p0---0-----0---0h2p0-------2p0---0h2p0---0-----0---0h2p0-------2p0--| 
G|--0-------0---0-0---0-------0---------0-------0---0-0---0-------0----------| x2 
C|---------------------------------------------------------------------------| 
A|---------------------------------------------------------------------------| 
D|---------------------------------------------------------------------------| 
    .       .   . .   .       .         .       .   . .   .       .       


Chorus 

Guitar 1 
E|--0--0--0--0------------------------------0--0--0--0--| 
C|--0--0--0--0------------------------------0--0--0--0--| 
G|--0--0--0--0------------------------------0--0--0--0--| 
C|--0--0--0--0------------------------------0--0--0--0--| 
A|--x--x--x--x------------------------------x--x--x--x--| 
D|--3--3--3--3------------------------------3--3--3--3--| 

E|--0--0-0--0--0----------------------------0--0--0--0--| 
C|--0--0-0--0--0---2h4p2p0-----0--0--0-0-0--0--0--0--0--| 
G|--0--0-0--0--0-----------0h2-2--5--5-5-5--0--0--0--0--| 
C|--0--0-0--0--0----------------------------0--0--0--0--| 
A|--x--x-x--x--x----------------------------x--x--x--x--| 
D|--3--3-3--3--3----------------------------3--3--3--3--| 

Guitar 2 
E|--0--0--0--0------------------------------0--0--0--0--| 
C|--0--0--0--0------------------------------0--0--0--0--| 
G|--0--0--0--0------------------------------0--0--0--0--| 
C|--0--0--0--0------------------------------0--0--0--0--| 
A|--x--x--x--x------------------------------x--x--x--x--| 
D|--3--3--3--3------------------------------3--3--3--3--| 

E|--0--0-0--0--0----------------------------0--0--0--0--| 
C|--0--0-0--0--0----------------------------0--0--0--0--| 
G|--0--0-0--0--0----------------------------0--0--0--0--| 
C|--0--0-0--0--0----------------------------0--0--0--0--| 
A|--x--x-x--x--x----------------------------x--x--x--x--| 
D|--3--3-3--3--3----------------------------3--3--3--3--| 



Post-Chorus 

Guitar 1 
E|------------3p0-----0h1p0-----0-------------------------------------0----| 
C|----0h2p0-------0---------0h2---2p0-------------0-------0-----0-------0--| 
G|----------0-------------------------0---0h2p0-----0-------0-----0--------| 
C|------------------------------------------------------------0-----0------| 
A|--3-----------------------------------0-------0-----0--------------------| 
D|------------------3-----------------------------------3------------------| 

E|------------3p0-----0h1p0-------------------------------------------0----| 
C|----0h2p0-------0---------0h2--2--0-------------0-------0-----0-------0--| 
G|----------0-------------------------0---0h2p0-----0-------0-----0--------| 
C|------------------------------------------------------------0-----0------| 
A|--3-----------------------------------0-------0-----0--------------------| 
D|------------------3-----------------------------------3------------------| 

Guitar 2 
E|-----|--0--| 
C|--0--|--0--| 
G|--0--|--0--| 
C|--x--|-----| 
A|--3--|-----| 
D|-----|-----| 



Verse 

Guitar 1 
E|--0----0----0----0----0-0----0----0-0-0-0-0-0-0-0-0-0-0-0-0-0-0-0--| 
C|--0----0----0----0----0-0----0----0-0-0-0-0-0-0-0-0-0-0-0-0-0-0-0--| 
G|--0----0----0----0----0-0----0----0-0-0-0-0-0-0-0-0-0-0-0-0-0-0-0--| 
C|--x----0----0----0----0-x----0----0-0-0-0-0-0-0-0-0-0-0-0-0-0-0-0--| 
A|--3----x----x----x----x-3----x----x-x-x-x-x-x-x-x-x-x-x-x-x-x-x-x--| 
D|-------3----7----3----3------3----7-7-7-7-7-7-7-7-3-3-3-3-5-5-5-5--| 

Guitar 2 
E|----------------------1p0-------------------------------1p0--------------| 
C|------------2p0-----------2p0-4\2p0-------------2p0---------2p0-------0--| 
G|----------0-----0-------------------0---0h2p0-0-----0-----------0h2/4----| x2 
C|----0h2h4----------------------------------------------------------------| 
A|-------------------------------------------------------------------------| 
D|-------------------------------------------------------------------------| 



Chorus 

Guitar 1 
E|--0--0--0--0------------------------------0--0--0--0--| 
C|--0--0--0--0------------------------------0--0--0--0--| 
G|--0--0--0--0------------------------------0--0--0--0--| 
C|--0--0--0--0------------------------------0--0--0--0--| 
A|--x--x--x--x------------------------------x--x--x--x--| 
D|--3--3--3--3------------------------------3--3--3--3--| 

E|--0--0-0--0--0----------------------------0--0--0--0--| 
C|--0--0-0--0--0---2h4p2p0-----0--0--0-0-0--0--0--0--0--| 
G|--0--0-0--0--0-----------0h2-2--5--5-5-5--0--0--0--0--| 
C|--0--0-0--0--0----------------------------0--0--0--0--| 
A|--x--x-x--x--x----------------------------x--x--x--x--| 
D|--3--3-3--3--3----------------------------3--3--3--3--| 

Guitar 2 
E|--0--0--0--0------------------------------0--0--0--0--| 
C|--0--0--0--0------------------------------0--0--0--0--| 
G|--0--0--0--0------------------------------0--0--0--0--| 
C|--0--0--0--0------------------------------0--0--0--0--| 
A|--x--x--x--x------------------------------x--x--x--x--| 
D|--3--3--3--3------------------------------3--3--3--3--| 

E|--0--0-0--0--0----------------------------0--0--0--0--| 
C|--0--0-0--0--0----------------------------0--0--0--0--| 
G|--0--0-0--0--0----------------------------0--0--0--0--| 
C|--0--0-0--0--0----------------------------0--0--0--0--| 
A|--x--x-x--x--x----------------------------x--x--x--x--| 
D|--3--3-3--3--3----------------------------3--3--3--3--| 



Bridge 

Guitar 
E|--0--------0----0--x-x--|--0------------------0-0-0-0-0-0-0-0-0-0-0-0-0-0--| 
C|--0--------0----0--x-x--|--0------------------0-0-0-0-0-0-0-0-0-0-0-0-0-0--| 
G|--0--------0----0--x-x--|--0------------------0-0-0-0-0-0-0-0-0-0-0-0-0-0--| 
C|--0--------0----0--x-x--|--0------------------0-0-0-0-0-0-0-0-0-0-0-0-0-0--| 
A|--x--------x----x--x-x--|--x------------------x-x-x-x-x-x-x-x-x-x-x-x-x-x--| 
D|--3--------7----5--x-x--|--3------------------7-7-7-7-7-7-7-7-5-5-5-5-5-5--| 

Guitar 
E|--0--------0----0--x-x--|--0---12+------------0-0-0-0-0-0-0-0-0-0-0-0-0-0--| 
C|--0--------0----0--x-x--|--0------12+---12+---0-0-0-0-0-0-0-0-0-0-0-0-0-0--| 
G|--0--------0----0--x-x--|--0---------12+------0-0-0-0-0-0-0-0-0-0-0-0-0-0--| 
C|--0--------0----0--x-x--|--0------------------0-0-0-0-0-0-0-0-0-0-0-0-0-0--| 
A|--x--------x----x--x-x--|--x------------------x-x-x-x-x-x-x-x-x-x-x-x-x-x--| 
D|--3--------7----5--x-x--|--3------------------7-7-7-7-7-7-7-7-5-5-5-5-5-5--| 



Chorus 

Guitar 1 
E|--0--0--0--0----------------------------0--0--0--0-----------------------------| 
C|--0--0--0--0---2h4p2p0-----0--0--0-0-0--0--0--0--0-----------------------------| 
G|--0--0--0--0-----------0h2-2--5--5-5-5--0--0--0--0-----------------------------| 
C|--0--0--0--0----------------------------0--0--0--0-----------------------------| 
A|--x--x--x--x----------------------------x--x--x--x-----------------------------| 
D|--3--3--3--3----------------------------7--7--7--7-----------------------------| 

E|--0--0--0--0----------------------------0--0--0--0-------------12+-------------| 
C|--0--0--0--0---2h4p2p0-----0--0--0-0-0--0--0--0--0---12+------------12+--------| 
G|--0--0--0--0-----------0h2-2--5--5-5-5--0--0--0--0--------12+------------12+---| 
C|--0--0--0--0----------------------------0--0--0--0-----------------------------| 
A|--x--x--x--x----------------------------x--x--x--x-----------------------------| 
D|--3--3--3--3----------------------------7--7--7--7-----------------------------| 

E|--0--0--0--0----------------------------0--0--0--0-----------------------------| 
C|--0--0--0--0---2h4p2p0-----0--0--0-0-0--0--0--0--0--------------------7+-------| 
G|--0--0--0--0-----------0h2-2--5--5-5-5--0--0--0--0------------------------7+---| 
C|--0--0--0--0----------------------------0--0--0--0-----------------------------| 
A|--x--x--x--x----------------------------x--x--x--x-----------------------------| 
D|--3--3--3--3----------------------------7--7--7--7-----------------------------| 

E|--0--0--0--0----------------------------0-0-0-0-0-0-0-0-0-0-0-0-0-0-0-0--| 
C|--0--0--0--0---2h4p2p0-----0--0--0-0-0--0-0-0-0-0-0-0-0-0-0-0-0-0-0-0-0--| 
G|--0--0--0--0-----------0h2-2--5--5-5-5--0-0-0-0-0-0-0-0-0-0-0-0-0-0-0-0--| 
C|--0--0--0--0----------------------------0-0-0-0-0-0-0-0-0-0-0-0-0-0-0-0--| 
A|--x--x--x--x----------------------------x-x-x-x-x-x-x-x-x-x-x-x-x-x-x-x--| 
D|--3--3--3--3----------------------------7-7-7-7-7-7-7-7-5-5-5-5-5-5-5-5--| 

Guitar 2 
E|--0--0--0--0----------------------------0--0--0--0--------------------1p0------| 
C|--0--0--0--0----------------------------0--0--0--0--------------0---------2p0--| 
G|--0--0--0--0----------------------------0--0--0--0--------0h2p0---0------------| 
C|--0--0--0--0----------------------------0--0--0--0--0h2h4-----------0----------| 
A|--x--x--x--x----------------------------x--x--x--x-----------------------------| 
D|--3--3--3--3----------------------------7--7--7--7-----------------------------| 

E|--0--0--0--0----------------------------0--0--0--0-------------12+-------------| 
C|--0--0--0--0----------------------------0--0--0--0---12+------------12+--------| 
G|--0--0--0--0----------------------------0--0--0--0--------12+------------12+---| 
C|--0--0--0--0----------------------------0--0--0--0-----------------------------| 
A|--x--x--x--x----------------------------x--x--x--x-----------------------------| 
D|--3--3--3--3----------------------------7--7--7--7-----------------------------| 

E|--0--0--0--0----------------------------0--0--0--0--0h1p0-------0--------------| 
C|--0--0--0--0----------------------------0--0--0--0--------2h4p0-----------0----| 
G|--0--0--0--0----------------------------0--0--0--0------------------0----------| 
C|--0--0--0--0----------------------------0--0--0--0--------------------0--------| 
A|--x--x--x--x----------------------------x--x--x--x-----------------------------| 
D|--3--3--3--3----------------------------7--7--7--7-----------------------------| 

E|--0--0--0--0----------------------------0-0-0-0-0-0-0-0-0-0-0-0-0-0-0-0--| 
C|--0--0--0--0----------------------------0-0-0-0-0-0-0-0-0-0-0-0-0-0-0-0--| 
G|--0--0--0--0----------------------------0-0-0-0-0-0-0-0-0-0-0-0-0-0-0-0--| 
C|--0--0--0--0----------------------------0-0-0-0-0-0-0-0-0-0-0-0-0-0-0-0--| 
A|--x--x--x--x----------------------------x-x-x-x-x-x-x-x-x-x-x-x-x-x-x-x--| 
D|--3--3--3--3----------------------------7-7-7-7-7-7-7-7-5-5-5-5-5-5-5-5--| 



Outro 

Guitar 1 
E|--------0-----------------0-0-0-0-0-0-0-0-0-0-0-0-0-0-0-0--| 
C|----------0---------2p0---0-0-0-0-0-0-0-0-0-0-0-0-0-0-0-0--| 
G|----0-------0---0-------0-0-0-0-0-0-0-0-0-0-0-0-0-0-0-0-0--| x2 
C|------0-----------0-------0-0-0-0-0-0-0-0-0-0-0-0-0-0-0-0--| 
A|--------------------------x-x-x-x-x-x-x-x-x-x-x-x-x-x-x-x--| 
D|--3-----------3-----------7-7-7-7-7-7-7-7-5-5-5-5-5-5-5-5--| 

E|--0--| 
C|--0--| 
G|--0--| 
C|--0--| 
A|--x--| 
D|--3--| 

Guitar 2 
E|--------0-----------------0-0-0-0-0-0-0-0-0-0-0-0-0-0-0-0--| 
C|----------0---------2p0---0-0-0-0-0-0-0-0-0-0-0-0-0-0-0-0--| 
G|--0-0-0-----0-0-0-0-----0-0-0-0-0-0-0-0-0-0-0-0-0-0-0-0-0--| x2 
C|--0-0-0-------0-0-0-------0-0-0-0-0-0-0-0-0-0-0-0-0-0-0-0--| 
A|--x-x-x-------x-x-x-------x-x-x-x-x-x-x-x-x-x-x-x-x-x-x-x--| 
D|--3-3-3-------3-3-3-------7-7-7-7-7-7-7-7-5-5-5-5-5-5-5-5--| 
    . . .       . . . 
E|--0--| 
C|--0--| 
G|--0--| 
C|--0--| 
A|--x--| 
D|--3--| 



End 



************************************* 

|  h    hammer on 
|  p    pull off 
|  /    slide up 
|  \    slide down 
|  .    palm mute 
|  +    natural harmonic 
|  x    mute string 

************************************* 
		  

See also:

tabs Ira! - Poço de Sensibilidade (Solo - Acustico Mtv) tabs Deep Purple - Smoke On The Water tabs Deep Purple - Smoke on the water (intro) tabs Ira! - Eu Quero Sempre Mais (Com Pitty, intro) tabs Deep Purple - Smoke on the Water (ver. 2) tabs Deep Purple - Knocking At Your Back Door
e-chords

Other versions:

tabs Hot Mulligan - Og Bule Sky
auto scroll beats size up size down change color hide chords drawings
tab show chords e-chords YouTube Clip e-chords hide all tabs e-chords go to top tab

share