Hinário Adventista

home > Hinário Adventista

Vós Criaturas Do Senhor Tab

Hinário Adventista

Difficulty: nolevelnolevel

by HELON

tuner correct add songbook print version text version save to e-mail
chordsukulelecavacokeyboardtabbassdrumsharmonicsflute Guitar Pro
chords

Vós Criaturas Do Senhor

  		



1   |   |   |  |   |   |  |   |   |   |   |   |   |   |   |  |   |   |  |   |   |   
E |----------|----------|---------0-|-----0---1-|-3--------|----------|---------0-| 
B |----------|-----1----|-1---3-----|-1---------|-3--------|-----1----|-1---3-----| 
G |----------|----------|-----------|-----------|----------|----------|-----------| 
D |----------|----------|-----------|-----------|----------|----------|-----------| 
A |----------|----------|-----------|-----------|----------|----------|-----------| 
E |----------|----------|-----------|-----------|----------|----------|-----------| 



8   |   |   |   |   |   |  |   |   |   |   |   |   |   |   |   |   |   |   
E |-----------|----------|-----8---7-|-----------|-----8---7-|-----------| 
B |-----5---6-|-8--------|-----------|-10------8-|-----------|-10------8-| 
G |-5---------|-7--------|-----------|-----------|-----------|-----------| 
D |-----------|----------|-----------|-----------|-----------|-----------| 
A |-----------|----------|-----------|-----------|-----------|-----------| 
E |-----------|----------|-----------|-----------|-----------|-----------| 



14  |   |   |  |   |   |   |   |   |    |   |   |  |   |   |  |   |   |   
E |-----8----|-8---------|-----0------|----------|-----8----|-8---------| 
B |----------|-----8---8-|------------|-8--------|----------|-----8---8-| 
G |----------|-----------|-10------10-|----------|----------|-----------| 
D |----------|-----------|------------|----------|----------|-----------| 
A |----------|-----------|------------|----------|----------|-----------| 
E |----------|-----------|------------|----------|----------|-----------| 



20  |   |   |   |   |   |  |   |   |   |   |   |   |   |   |   |   |   |   
E |-----0---1-|-3--------|-----1---0-|-----------|-----1---0-|-----------| 
B |-----------|----------|-----------|-3-------1-|-----------|-3-------1-| 
G |-10--------|----------|-----------|-----------|-----------|-----------| 
D |-----------|----------|-----------|-----------|-----------|-----------| 
A |-----------|----------|-----------|-----------|-----------|-----------| 
E |-----------|----------|-----------|-----------|-----------|-----------| 



26  |   |   |   |   |   |   |   |   |   |   |   |   |   |   |   |   |   |  
E |-----8---7-|-----------|-----8---7-|-----------|---------0-|----------| 
B |-----------|-10------8-|-----------|-10------8-|-----------|----------| 
G |-----------|-----------|-----------|-----------|-----10----|----------| 
D |-----------|-----------|-----------|-----------|-----------|-12-------| 
A |-----------|-----------|-----------|-----------|-----------|----------| 
E |-----------|-----------|-----------|-----------|-----------|----------| 



32  |   |   |  |   |   |  |   |   |  
E |----------|----------|----------| 
B |----------|----------|----------| 
G |----------|----------|----------| 
D |----------|-10-------|----------| 
A |----------|----------|----------| 
E |----------|----------|----------| 
	  

Search Paypal
auto scroll beats size up size down change color hide chords drawings
tab show chords e-chords YouTube Clip e-chords hide all tabs e-chords go to top tab