Hinário Adventista

home > Hinário Adventista

A Deus Demos Glória Tab

Hinário Adventista

Difficulty: nolevelnolevel

by HELON

tuner correct add songbook print version text version save to e-mail
chordsukulelecavacokeyboardtabbassdrumsharmonicsflute Guitar Pro
chords

A Deus Demos Glória

(Hinário Adventista)

  		




1   |   |   |   |   |   |     |   |   |   |   |   |   |   |   |   |   |   |   
E |-----------|---------0-2-|-3-------3-|-5-------5-|-7-------7-|-8-------8-| 
B |---------3-|-3-----------|-----3-----|-----3-----|-----------|-----------| 
G |-----------|-------------|-----------|-----------|-----------|-----9-----| 
D |-----------|-------------|-----------|-----------|-----------|-----------| 
A |-----------|-------------|-----------|-----------|-----------|-----------| 
E |-----------|-------------|-----------|-----------|-----------|-----------| 



7   |   |   |   |   |   |   |   |   |   |   |   |     |   |   |   |   |   |   
E |-7-------7-|-7-------0-|-----------|---------0-2-|-3-------3-|-5-------5-| 
B |-----8-----|-----10----|-10------3-|-3-----------|-----3-----|-----3-----| 
G |-----------|-----------|-----------|-------------|-----------|-----------| 
D |-----------|-----------|-----------|-------------|-----------|-----------| 
A |-----------|-----------|-----------|-------------|-----------|-----------| 
E |-----------|-----------|-----------|-------------|-----------|-----------| 



13  |   |   |   |   |   |    |   |   |   |   |   |    |   |   |     |   |   |     
E |-7-------7-|-10--8------|-----------|-7---7------|---------7-8-|-10------7-8-| 
B |-----------|---------10-|-8---7---8-|---------10-|-8-----------|-------------| 
G |-----------|------------|-----------|------------|-------------|-------------| 
D |-----------|------------|-----------|------------|-------------|-------------| 
A |-----------|------------|-----------|------------|-------------|-------------| 
E |-----------|------------|-----------|------------|-------------|-------------| 



19  |   |   |      |   |   |   |   |   |      |   |   |      |   |   |      
E |-10------10-7-|---------7-|------------7-|-8----------7-|-8-------8----| 
B |--------------|-8---10----|-10------10---|---------10---|-----------10-| 
G |--------------|-----------|--------------|--------------|--------------| 
D |--------------|-----------|--------------|--------------|--------------| 
A |--------------|-----------|--------------|--------------|--------------| 
E |--------------|-----------|--------------|--------------|--------------| 



24  |   |   |   |   |   |   |   |   |     |   |   |   |   |   |   |   |   |   
E |-10--10--8-|-7---------|---------0-2-|-3-------3-|-5-------5-|-7-------7-| 
B |-----------|-----------|-------------|-----3-----|-----3-----|-----------| 
G |-----------|---------7-|-7-----------|-----------|-----------|-----------| 
D |-----------|-----------|-------------|-----------|-----------|-----------| 
A |-----------|-----------|-------------|-----------|-----------|-----------| 
E |-----------|-----------|-------------|-----------|-----------|-----------| 



30  |   |   |    |   |   |   |   |   |    |   |   |  
E |-10--8------|-----------|-7---7------|----------| 
B |---------10-|-8---7---8-|---------10-|----------| 
G |------------|-----------|------------|-12-------| 
D |------------|-----------|------------|----------| 
A |------------|-----------|------------|----------| 
E |------------|-----------|------------|----------| 
	  

Search Paypal
auto scroll beats size up size down change color hide chords drawings
tab show chords e-chords YouTube Clip e-chords hide all tabs e-chords go to top tab