Hillsong Music Australia

In the Mystery

Hillsong Music Australia

tabs Intermediate intermediate

by  KBLOVSKY

save to print version add songbook text version e-mail correct tuner
chordsukulelecavacokeyboardtabbassdrumsharmonicaflute Guitar Pro
close

there isn't a video lesson for this song

chords

In the Mystery

	  		Música: In the Mystery 
Artista: Hillsong  
Album: Savior King 


Intro 

Sempre abafando as notas... principalmente as duas primeiras.. 

-14---------14--------------------------------- 
----16-(x6)----16-x-16-x-16--14----14-16-14h16- 
--------------------------------15------------- 
----------------------------------------------- 
----------------------------------------------- 
----------------------------------------------- 

enquanto isso a Guitarra base: 
----------------- 
-----4--------4-- 
---4--------4---- 
-4------4s6------ 
----------------- 
----------------- 
 B G#m 

Verso 
Guitarra solo, variando na introdução 

Guitarra base 
------------------0-------- 
-----4--------4---0--4--2-- 
---4--------4-----1--4--3-- 
-4------4s6-------2-------- 
------------------2-------- 
------------------0--4--2-- 

 B G#m E G#m F# 

Pre-Refrão: 

-14h16----------14h16----------------- 
-------14h16-16-------14h16-16-12-14-- 
-------------------------------------- 
-------------------------------------- 
-------------------------------------- 
-------------------------------------- 
duas vezes e segue repetindo o riff abaixo: 

-------------------------------------- 
-------12----------------------------- 
-11-13----(repetindo)----------------- 
-------------------------------------- 
-------------------------------------- 
-------------------------------------- 


Refrão: B F# E G#m E 

toque G#m E para ir pro "aleluia", usando os mesmos acordes do Refrão. 

Ponte: 

----14-14----14---------11-11----11---- 
-12-------12----12---12-------12----12- 
--------------------------------------- (x2) 
--------------------------------------- 
--------------------------------------- 
--------------------------------------- 


-------------------------------------- 
-------12----------------------------- 
-11-13----(repetindo)----------------- 
-------------------------------------- 
----Lacy-"KBLOVSKY"-Campos------------ 
------Itapetininga--SP---------------- 

Acordes 
C#m E B (x2) 
F# G#m E 

		  

Full key step upFull key step up
Half key step upHalf key step up
Half key step downHalf key step down
Full key step downFull key step down
hide glossary

See also:

tabs Hillsong Music Australia - From the Inside Out tabs Beaverloop - Funkywrench tabs Joss Stone - Fell in love with a boy tabs Beaverloop - Alien DNA-Thumb tabs Hillsong Music Australia - Evermore(for all you've done) tabs Gerling - The Deer In You
e-chords

Other versions:

tabs Hillsong Music Australia - In the Mystery
auto scroll beats size up size down change color hide chords drawings
tab show chords e-chords YouTube Clip e-chords hide all tabs e-chords go to top tab

share