Heino

Wir Lagen Vor Madagaskar

Heino

tabs nolevel nolevel

by  LUCICAMARGO

save to print version add songbook text version e-mail correct tuner
chordsukulelecavacokeyboardtabbassdrumsharmonicaflute Guitar Pro
close

there isn't a video lesson for this song

chords

Wir Lagen Vor Madagaskar

	  		
Verse 
   C         G           C   +       +        G      C   +             G          +       + 
E|---------------------|---------------------------|-0----------------------|-----------------0---------| 
B|---------------------|-1---1-------1---1----3----|-----1------------------|-3---3-------3--------3----| 
G|----------------0----|---------------------------|-------------------0----|---------------------------| 
D|------2---------0----|---------2------------0----|---------2---------0----|---------0------------0----| 
A|-3-------------------|-3-------------------------|-3----------------------|---------------------------| 
E|-----------3---------|-----------------3---------|--------------3---------|-3---------------3---------| 
                  Wir    lagen        vor  Mada-     gaskar            und    hatten      die Pest an 
                  Wir    lagen        schon vierzehn Tage,             kein   Wind    in  die Segel uns  
                  Der    Langhein        war  der    erste,            der    soff von    dem faulen    
                   
   C          G       +     C   +       +        G      C              G          +       +            + 
E|----------------3---3---|-0---0-------0---0----1----|-3----0--------------|-----------------0----0-------| 
B|-1----------------------|---------------------------|---------------------|-3---3-------3------------3---| 
G|------------------------|---------------------------|----------------0----|------------------------------| 
D|------2---------0-------|---------2------------0----|------2---------0----|---------0------------0-------| 
A|-3----------------------|-3-------------------------|-3-------------------|------------------------------| 
E|-----------3------------|-----------------3---------|-----------3---------|-3---------------3------------| 
   Bord.          In  den   Kesseln da  faulte   das    Wasser,        und    täglich    ging einer über Bord 
   pfiff.         Der       Durst   war die größte      Plage,         dann   llefen      wir  auf ein   Riff 
   Nass.          Die       Pest        gab ihm  das    Letzte,        und    wir ihm     ein Seemans-   grab 

Chorus 

   C         G           C          G       +     C   +             G             
E|----------------3----|-0----------------------|-0----------------------|----------------0----| 
B|-1-------------------|-1--------------1---3---|-----1------------------|-3-------------------| 
G|---------------------|------------------------|-------------------0----|-0-------------------| 
D|------2---------0----|------2---------0-------|---------2---------0----|------0---------0----| 
A|-3-------------------|-3----------------------|-3----------------------|-----------2---------| 
E|-----------3---------|-----------3------------|--------------3---------|-3-------------------| 
                  A-     hoi,           Kame-     raden!            A-     hoi,           a- 

   C                                        +         +             G 
E|----------------3----|-0--------------0---1---|-3---0------------------|----------------0----| 
B|-1-------------------|-1----------------------|------------------------|-3--------------0----| 
G|-0-------------------|------------------------|-------------------0----|-0-------------------| 
D|------2---------0----|------2---------0-------|---------2---------0----|------0--------------| 
A|-3-------------------|-3---------3------------|-3----------------------|----------------2----| 
E|-----------3---------|------------------------|--------------3---------|-3---------3---------| 
   hoi!           Leb    wohl,          kleines   Mädel!            Leb    wohl,          leb 


Post-Chorus 
   C             +       +     F   +       +            +     C        +            + 
E|-----------------------0---|-1---1-------1---1------------|-0-------------------------| 
B|-1-------------1--h3-------|-1---------------1----1--h3---|-1--------3---1----1--h3---| 
G|-0-------------------------|------------------------------|--------------0------------| 
D|------2------------2-------|---------3------------3-------|------2------------2-------| 
A|-3-------------------------|------------------------------|-3------------3------------| 
E|-----------3---------------|-1---------------1------------|---------------------------| 
   wohl!         Denn wenn das Schiffer-   klavier  an        Bord     erklingt, ja dann 

       +       +               +     G        +           +     C   +       + 
E|-0---0-------0---0---------------|------------------3---3---|-0---0-------0---0----1----| 
B|-1---------------1---3-------1---|-3----------------0-------|-1---------------1----0----| 
G|---------------------------------|-0--------0---------------|---------------------------| 
D|---------2---------------0-------|------0-----------0-------|---------2------------0----| 
A|-3-------------------------------|--------------2-----------|-3-------------------------| 
E|-----------------3---------------|-3------------------------|-----------------3---------| 
   sind die    Matrosen        so    still,           weil ein  jeder       nach seiner  

       +       +            +     G   +       +            +     C 
E|-3---3-------1---0------------|-----------------0----0-------|---------------------| 
B|-1---------------1------------|-3---3-------3---0--------3---|-1-------------------| 
G|--------------------------0---|-0----------------------------|-0-------------------| 
D|---------2------------0-------|---------0------------0-------|------2---------2----| 
A|-3---------------3------------|------------------------------|-3-------------------| 
E|------------------------------|-3---------------3------------|-----------3---------| 
   Heimat      sich sehnt, die er gerne einmal    wiedersehen    will.    


************************************       

| h    Hammer on 
+      Eighth 
                                           
************************************ 
		  

Full key step upFull key step up
Half key step upHalf key step up
Half key step downHalf key step down
Full key step downFull key step down
hide glossary

See also:

tabs Deep Purple - Sometimes a Feel Like Screaming tabs Deep Purple - Mistreated tabs Deep Purple - Smoke on the Water (ver. 2) tabs Ira! - Vitrine Viva tabs Doa - Sexyest Girl tabs Deep Purple - Ted The Mechanic
e-chords

Other versions:

tabs Heino - Wir Lagen Vor Madagaskar
auto scroll beats size up size down change color hide chords drawings
tab show chords e-chords YouTube Clip e-chords hide all tabs e-chords go to top tab

share with facebook