Harpa Cristã

home > Harpa Cristã

Somente A Ti! Tab

Harpa Cristã

Difficulty: nolevelnolevel

by gustsilva

tuner correct add songbook print version text version save to e-mail
chordsukulelecavacokeyboardtabbassdrumsharmonicsflute Guitar Pro
chords

Somente A Ti!

  		 
E|------0----5-|-5----5--7----|--------------|-7----------7-|-9---------5-| 
B|---------5-5-|-5----5-----7-|-7----7--9-10-|-9-------10-9-|-10---5--5-5-| 
G|------6--6-6-|-6-------7--7-|-7----7--9-11-|------9--9--7-|-6----6--6-6-| 
D|---------7---|------7-----9-|-9----9--9-7--|------6--7----|---------7---| 
A|------0------|---------11---|---------7-7--|-11-----------|-0----0--0-0-| 
E|---------5-5-|-5----9--7--7-|-7----7-------|-12---10-9--7-|-------------| 
 

 
E|-5----0--7----|------10-9-7-|-9-------7--0--|-0--------| 
B|-5----10----7-|-7----7------|------10-7--0--|----------| 
G|-6-------7--7-|-7-------9-9-|-9----9--7--13-|-14-------| 
D|------7-----9-|-9----7--7-6-|-7----7--------|-11-------| 
A|-0-------11---|---------7-7-|-0-------------|-0--------| 
E|------9--7--7-|-7----7------|------9--10-12-|----------| 
	  

Search Paypal
auto scroll beats size up size down change color hide chords drawings
tab show chords e-chords YouTube Clip e-chords hide all tabs e-chords go to top tab