save to print version add songbook text version e-mail correct tuner
chordsukulelecavacokeyboardtabbassdrumsharmonicaflute Guitar Pro
close

there isn't a video lesson for this song

chords

Marilyn Hanson

	  		

Legend 
L - tied note 
x - dead note 
h - hammer on/pull off 
b - bend 
s - slide 
~ - vibrato 
g - ghost note 
> - accentuated note 
t - trill 
M - palm mute 
. - staccato 
P - popping (bass) 
S - slapping (bass) 
+ - tapping 
W - wide vibrato 
< - fade in 
w - whammy bar 
= - tremolo picking 
v - brush up 
^ - brush down 
V - pick stroke up 
n - pick stroke down 

                                                         
E |----------------------------------------------------| 
B |----------------------------------------------------| 
G |--------------------------5-----5--5-----5--5--5----| 
D |--5-----5--5-----5--5--5--5-----5--5-----5--5--5----| 
A |--5-----5--5-----5--5--5--3-----3--3-----3--3--3----| 
E |--3-----3--3-----3--3--3----------------------------| 

                                                      
----------------------------------------------------| 
----------------------------------------------------| 
--------------------------7-----7--7-----7--7--7----| 
--5-----5--5-----5--5--5--7-----7--7-----7--7--7----| 
--5-----5--5-----5--5--5--5-----5--5-----5--5--5----| 
--3-----3--3-----3--3--3----------------------------| 

                                                      
----------------------------------------------------| 
----------------------------------------------------| 
--------------------------5-----5--5-----5--5--5----| 
--5-----5--5-----5--5--5--5-----5--5-----5--5--5----| 
--5-----5--5-----5--5--5--3-----3--3-----3--3--3----| 
--3-----3--3-----3--3--3----------------------------| 

                                                              
----------------------------------------------------|-------| 
----------------------------------------------------|-------| 
--------------------------5s-7--7s-9--9s-11-11s12---|--12L--| 
--5-----5--5-----5--5-------------------------------|-------| 
--5-----5--5-----5--5--3--3s-5--5s-7--7s-9--9s-10---|--10L--| 
--3-----3--3-----3--3-------------------------------|-------| 

                          ^                            ^      
----------------------------------------------------|-------| 
----------------------------------------------------|-------| 
--12~---------------------11----11-11-11-11-11-12---|--12L--| 
--------------------------12------------------------|--12L--| 
--10----------------------10------------------------|--10L--| 
--------------------------10------------------------|--10L--| 

                          ^                           
----------------------------------------------------| 
----------------------------------------------------| 
--12----------------------11----11-11-11-11-11s-----| 
--12----------------------12------------------------| 
--10----------------------10------------------------| 
--10----------------------10------------------------| 

                                                      
----------------------------------------------------| 
----------------------------------------------------| 
----------------------------------------------------| 
----------------------------------------------------| 
--10----10-10----10-10-10-10----10-10----10-10-10---| 
--10----10-10----10-10-10-10----10-10----10-10-10---| 

                                                      
----------------------------------------------------| 
----------------------------------------------------| 
----------------------------------------------------| 
----------------------------------------------------| 
--7-----7--7-----7--7--7--7-----7--7-----7--7--7----| 
--8-----8--8-----8--8--8--8-----8--8-----8--8--8----| 

                                                      
----------------------------------------------------| 
----------------------------------------------------| 
----------------------------------------------------| 
----------------------------------------------------| 
--10----10-10----10-10-10-10----10-10----10-10-10---| 
--10----10-10----10-10-10-10----10-10----10-10-10---| 

                                                      
----------------------------------------------------| 
----------------------------------------------------| 
--------------------------9-----9--9-----9--9--9----| 
--------10-10----10-10-10-10----10-10----10-10-10---| 
--7-----7--7-----7--7--7--7-----7--7-----7--7--7----| 
--8-----8--8-----8--8--8--8-----8--8-----8--8--8----| 

                                                      
----------------------------------------------------| 
----------------------------------------------------| 
--7-----7--7-----7--7--7--7-----7--7-----7--7--7----| 
--7-----7--7-----7--7--7--7-----7--7-----7--7--7----| 
--5-----5--5-----5--5--5--5-----5--5-----5--5--5----| 
----------------------------------------------------| 

                                                      
----------------------------------------------------| 
----------------------------------------------------| 
--5-----5--5-----5--5--5--7-----7--7-----7--7--7----| 
--5-----5--5-----5--5--5--7-----7--7-----7--7--7----| 
--3-----3--3-----3--3--3--5-----5--5-----5--5--5----| 
----------------------------------------------------| 

                                                      
----------------------------------------------------| 
----------------------------------------------------| 
--7-----7--7-----7--7--7----------------------------| 
--7-----7--7-----7--7--7--5-----5--5-----5--5--5----| 
--5-----5--5-----5--5--5--5-----5--5-----5--5--5----| 
--------------------------3-----3--3-----3--3--3----| 

                                                      
----------------------------------------------------| 
----------------------------------------------------| 
--5-----5--5-----5--5--5--7-----7--7--7--7--7-------| 
--5-----5--5-----5--5--5--7-----7--7--7--7--7--x----| 
--3-----3--3-----3--3--3--5-----5--5--5--5--5--x----| 
-----------------------------------------------x----| 

                                                      
----------------------------------------------------| 
----------------------------------------------------| 
--5-----------5--------5--5-----5-----------7L------| 
--5-----------5--------5--5-----5-----------7L------| 
--3-----------3--------3--3-----3-----------5L------| 
----------------------------------------------------| 

                                                      
----------------------------------------------------| 
----------------------------------------------------| 
--7-----7-----7--------7--7-----7-----7--7----------| 
--7-----7-----7--------7--7-----7-----7--7--x-------| 
--5-----5-----5--------5--5-----5-----5--5--x-------| 
----------------------------------------------------| 

                                                      
----------------------------------------------------| 
----------------------------------------------------| 
--5-----------5--------5--5-----5-----5--5----------| 
--5-----------5--------5--5-----5-----5--5----------| 
--3-----------3--------3--3-----3-----3--3----------| 
--------------------------------------------3-------| 

                                                      
----------------------------------------------------| 
----------------------------------------------------| 
----------------------------------------------------| 
--5-----------5--------5--5-----5-----5--5----------| 
--5-----------5--------5--5-----5-----5--5--3-------| 
--3-----------3--------3--3-----3-----3--3----------| 

                                                      
----------------------------------------------------| 
----------------------------------------------------| 
--5-----------5--------5--5-----5-----------7L------| 
--5-----------5--------5--5-----5-----------7L------| 
--3-----------3--------3--3-----3-----------5L------| 
----------------------------------------------------| 

                                                      
----------------------------------------------------| 
----------------------------------------------------| 
--7-----7-----7--------7--7-----7-----7--7----------| 
--7-----7-----7--------7--7-----7-----7--7----------| 
--5-----5-----5--------5--5-----5-----5--5--3-------| 
----------------------------------------------------| 

                                                      
----------------------------------------------------| 
----------------------------------------------------| 
--5-----------5--------5--5-----5-----------7L------| 
--5-----------5--------5--5-----5-----------7L------| 
--3-----------3--------3--3-----3-----5M----5L------| 
--------------------------------------5M----5L------| 

                                                      
----------------------------------------------------| 
----------------------------------------------------| 
--7-----7-----7--------7--7-----7-----7-------------| 
--7-----7-----7--------7--7-----7-----7-------------| 
--5-----5-----5--------5--5-----5-----5-----3M------| 
--5-----5-----5--------5--5-----5-----5-----3M------| 

                                                      
--0-----------0--------0--0-----0-----------0L------| 
--0-----------0--------0--0-----0-----------0L------| 
--0-----------0--------0--0-----0-----------0L------| 
--2-----------2--------2--2-----2-----------4L------| 
--3-----------3--------3--3-----3-----5M----5L------| 
--3-----------3--------3--3-----3-----5M----5L------| 

                                                      
--0-----0-----0--------0--0-----0-----------0L------| 
--0-----0-----0--------0--0-----0-----------0L------| 
--0-----0-----0--------0--0-----0-----------0L------| 
--4-----4-----4--------4--4-----5-----------2L------| 
--5-----5-----5--------5--5-----5-----3M----3L------| 
--5-----5-----5--------5--5-----5-----3M----3L------| 

                                                      
--0-----------0--------0--0-----0-----------0L------| 
--0-----------0--------0--0-----0-----------0L------| 
--0-----------0--------0--0-----0-----------0L------| 
--2-----------2--------2--2-----2-----------4L------| 
--3-----------3--------3--3-----3-----5M----5L------| 
--3-----------3--------3--3-----3-----5M----5L------| 

                                                           
--0--0--0--0--0-------------|----------------------------| 
--0--0--0--0--0-------------|--0--------0-----0-----0L---| 
--0--0--0--0--0-------------|--7~-------7~----7~----7L---| 
--4--4--4--4--4-------------|--9--------9-----9-----9L---| 
--5--5--5--5--5-------------|----------------------------| 
--5--5--5--5--5-------------|----------------------------| 

                              
----------------------------| 
--0--------0----------------| 
--7-----7-----0-------------| 
--9--9-----------------12s--| 
----------------------------| 
----------------------------| 

                                                                                 
-------------------------------------------------------------------------------- 
-------------------------------------------------------------------------------- 
--0-----------------------0-----------------------0-----------------------0----- 
--------------10----------------------9-----------------------7----------------- 
-------------------------------------------------------------------------------- 
-------------------------------------------------------------------------------- 

                                                                                
--------------------|----------------------------|----------------------------| 
--------------------|----------------------------|--------12~---12~12~---12L--| 
--------------------|--0-----0-----0-----0-------|--------0-----0--0-----0L---| 
------7s-9----------|-----7-----5-----4-----5----|--0--12-12~---12~12~---12L--| 
--------------------|----------------------------|----------------------------| 
--------------------|----------------------------|----------------------------| 

                                                                       
----------------------------|----------------------------------------| 
--12~---10----8-------------|--------0--------0--------0--------0----| 
--0-------------------------|-----0--------0--------0--------0-------| 
--12~10----9--------9--9----|--10-------9--------7--------5----------| 
----------------------------|----------------------------------------| 
----------------------------|----------------------------------------| 

                                                  
----------------------------------------|-------| 
--------0--------0--------0-------------|--0L---| 
-----0--------0--------0----------------|--0L---| 
--5--------4--------2--------4s---------|--0L---| 
----------------------------------------|-------| 
----------------------------------------|-------| 

                          ^                            ^      
----------------------------------------------------|-------| 
--0-------------------------------------------------|-------| 
--0-----------------------11----11-11-11-11-11-12---|--12L--| 
--0-----------------------12------------------------|--12L--| 
--------------------------10------------------------|--10L--| 
--------------------------10------------------------|--10L--| 

                          ^                           
----------------------------------------------------| 
----------------------------------------------------| 
--12----------------------11----11-11-11-11-11s-----| 
--12----------------------12------------------------| 
--10----------------------10------------------------| 
--10----------------------10------------------------| 

                                                      
----------------------------------------------------| 
----------------------------------------------------| 
----------------------------------------------------| 
----------------------------------------------------| 
--10----10-10----10-10-10-10----10-10----10-10-10---| 
--10----10-10----10-10-10-10----10-10----10-10-10---| 

                                                      
----------------------------------------------------| 
----------------------------------------------------| 
----------------------------------------------------| 
----------------------------------------------------| 
--7-----7--7-----7--7--7--7-----7--7-----7--7--7----| 
--8-----8--8-----8--8--8--8-----8--8-----8--8--8----| 

                                                      
----------------------------------------------------| 
----------------------------------------------------| 
----------------------------------------------------| 
----------------------------------------------------| 
--10----10-10----10-10-10-10----10-10----10-10-10---| 
--10----10-10----10-10-10-10----10-10----10-10-10---| 

                                                      
----------------------------------------------------| 
----------------------------------------------------| 
--------------------------9-----9--9-----9--9--9----| 
--------10-10----10-10-10-10----10-10----10-10-10---| 
--7-----7--7-----7--7--7--7-----7--7-----7--7--7----| 
--8-----8--8-----8--8--8--8-----8--8-----8--8--8----| 

                                                      
----------------------------------------------------| 
----------------------------------------------------| 
--7-----7--7-----7--7--7--7-----7--7-----7--7--7----| 
--7-----7--7-----7--7--7--7-----7--7-----7--7--7----| 
--5-----5--5-----5--5--5--5-----5--5-----5--5--5----| 
----------------------------------------------------| 

                                                      
----------------------------------------------------| 
----------------------------------------------------| 
--5-----5--5-----5--5--5--7-----7--7-----7--7--7----| 
--5-----5--5-----5--5--5--7-----7--7-----7--7--7----| 
--3-----3--3-----3--3--3--5-----5--5-----5--5--5----| 
----------------------------------------------------| 

                                                      
----------------------------------------------------| 
----------------------------------------------------| 
--7-----7--7-----7--7--7----------------------------| 
--7-----7--7-----7--7--7--5-----5--5-----5--5--5----| 
--5-----5--5-----5--5--5--5-----5--5-----5--5--5----| 
--------------------------3-----3--3-----3--3--3----| 

                                                      
----------------------------------------------------| 
----------------------------------------------------| 
--5-----5--5-----5--5--5--7-----7--7--7--7--7-------| 
--5-----5--5-----5--5--5--7-----7--7--7--7--7--x----| 
--3-----3--3-----3--3--3--5-----5--5--5--5--5--x----| 
-----------------------------------------------x----| 

                                                      
----------------------------------------------------| 
----------------------------------------------------| 
--5-----------5--------5--5-----5-----------7L------| 
--5-----------5--------5--5-----5-----------7L------| 
--3-----------3--------3--3-----3-----------5L------| 
----------------------------------------------------| 

                                                      
----------------------------------------------------| 
----------------------------------------------------| 
--7-----7-----7--------7--7-----7-----7--7----------| 
--7-----7-----7--------7--7-----7-----7--7--x-------| 
--5-----5-----5--------5--5-----5-----5--5--x-------| 
----------------------------------------------------| 

                                                      
----------------------------------------------------| 
----------------------------------------------------| 
--5-----------5--------5--5-----5-----5--5----------| 
--5-----------5--------5--5-----5-----5--5----------| 
--3-----------3--------3--3-----3-----3--3----------| 
--------------------------------------------3-------| 

                                                      
----------------------------------------------------| 
----------------------------------------------------| 
----------------------------------------------------| 
--5-----------5--------5--5-----5-----5--5----------| 
--5-----------5--------5--5-----5-----5--5--3-------| 
--3-----------3--------3--3-----3-----3--3----------| 

                                                      
----------------------------------------------------| 
----------------------------------------------------| 
--5-----------5--------5--5-----5-----------7L------| 
--5-----------5--------5--5-----5-----------7L------| 
--3-----------3--------3--3-----3-----------5L------| 
----------------------------------------------------| 

                                                      
----------------------------------------------------| 
----------------------------------------------------| 
--7-----7-----7--------7--7-----7-----7--7----------| 
--7-----7-----7--------7--7-----7-----7--7--x-------| 
--5-----5-----5--------5--5-----5-----5--5--x-------| 
----------------------------------------------------| 

                                                      
----------------------------------------------------| 
----------------------------------------------------| 
--5-----------5--------5--5-----5-----------7L------| 
--5-----------5--------5--5-----5-----------7L------| 
--3-----------3--------3--3-----3-----5M----5L------| 
--------------------------------------5M----5L------| 

                                                      
----------------------------------------------------| 
----------------------------------------------------| 
--7-----7-----7--------7--7-----7-----7--7----------| 
--7-----7-----7--------7--7-----7-----7--7----------| 
--5-----5-----5--------5--5-----5-----5--5--3M------| 
--5-----5-----5--------5--5-----5-----5--5--3M------| 

                                                      
--0-----------0--------0--0-----0-----------0L------| 
--0-----------0--------0--0-----0-----------0L------| 
--0-----------0--------0--0-----0-----------0L------| 
--2-----------2--------2--2-----2-----------4L------| 
--3-----------3--------3--3-----3-----5M----5L------| 
--3-----------3--------3--3-----3-----5M----5L------| 

                                                      
--0-----0-----0--------0--0-----0-----------0L------| 
--0-----0-----0--------0--0-----0-----------0L------| 
--0-----0-----0--------0--0-----0-----------0L------| 
--4-----4-----4--------4--4-----5-----------2L------| 
--5-----5-----5--------5--5-----5-----3M----3L------| 
--5-----5-----5--------5--5-----5-----3M----3L------| 

                                                      
--0-----------0--------0--0-----0-----------0L------| 
--0-----------0--------0--0-----0-----------0L------| 
--0-----------0--------0--0-----0-----------0L------| 
--2-----------2--------2--2-----2-----------4L------| 
--3-----------3--------3--3-----3-----5M----5L------| 
--3-----------3--------3--3-----3-----5M----5L------| 

                                                           
--0--0--0--0--0-------------|----------------------------| 
--0--0--0--0--0-------------|--1--1--1--1--1--1--1--0----| 
--0--0--0--0--0-------------|--0--0--0--0--0--0--0--0----| 
--4--4--4--4--4-------------|--2--2--2--2--2--2--2--2----| 
--5--5--5--5--5-------------|--3--3--3--3--3--3--3--3----| 
--5--5--5--5--5-------------|--3--3--3--3--3--3--3--3----| 

                                                           
--------------0--0--0-------||---------------------------| 
--0--0--0--0--0--0--0-------||---------------------------| 
--0--0--0--0--0--0--0-------||o11----12----14-------16---| 
--2--2--2--2--2--2--2-------||o12----12----12-------12---| 
--3--3--3--3--3--3--3--10s--||-10-10-10-10-10-10-10-10---| 
--3--3--3--3--3--3--3--10s--||-10-10-10-10-10-10-10-10---| 

                                                           
----------------------------|----------------------------| 
----------------------------|----------------------------| 
--16-16-16-16-16-14-12------|--------9-----9--------9----| 
--12-12-12-12-12-12-12------|--------10----10-------9----| 
--10-10-10-10-10-10-10-0----|--7--7--7--7--7--7--7--7----| 
--10-10-10-10-10-10-10-0----|--8--8--8--8--8--8--8--8----| 

                               ^ 
---------------------------|||---------------------------| 
---------------------------|||-10L10L10L10L10L10L10------| 
--------9-----9--9--9-----o|||o11----12----14-------16---| 
--------9-----9--9--9-----o|||o12----12----12-------12---| 
--7--7--7--7--7--7--7--10s-|||-10-10-10-10-10-10-10-10---| 
--8--8--8--8--8--8--8--10s-|||-10-10-10-10-10-10-10-10---| 


----------------------------|----------------------------| 
----------------------------|----------------------------| 
--16-16-16-16-16-14-12------|--------9-----9--------9----| 
--12-12-12-12-12-12-12------|--------10----10-------9----| 
--10-10-10-10-10-10-10-0----|--7--7--7--7--7--7--7--7----| 
--10-10-10-10-10-10-10-0----|--8--8--8--8--8--8--8--8----| 


---------------------------||----------------------------|-------|-------| 
---------------------------||----------------------------|-------|-------| 
--------9-----9--9--9-----o||--------9-----9--9--9-------|--0L---|--0L---| 
--------9-----9--9--9-----o||--------9-----9--9--9-------|--0L---|--0L---| 
--7--7--7--7--7--7--7--10s-||--7--7--7--7--7--7--7--0----|--2L---|--2L---| 
--8--8--8--8--8--8--8--10s-||--8--8--8--8--8--8--8--0----|--3L---|--3L---| 


-------|| 
-------|| 
--0----|| 
--0----|| 
--2----|| 
--3----|| 


DFTBA! 
		  

auto scroll beats size up size down change color hide chords drawings
tab show chords e-chords YouTube Clip e-chords hide all tabs e-chords go to top tab

share