Hammerfall

The Champion

Hammerfall

tabs Advanced advanced

by  EDUARDO_LYVIO

save to print version add songbook text version e-mail correct tuner
chordsukulelecavacokeyboardtabbassdrumsharmonicaflute Guitar Pro
close

there isn't a video lesson for this song

chords

The Champion

	  		-==versão 1==-    
 
intro                                                                 
D#||------------------------------|----------------------------| 
A#||------------------------------|----------------------------| 
F#||*--9--------------9---7---10--|--9--------------5---4---7--| 
C#||*--7--------------7---7---7---|--7--------------7---7---7--| 
G#||---0--0-0-0-0-0-0-------------|--0--0-0-0-0-0-0------------| 
D#||------------------------------|----------------------------| 
 
 
                                                      
----------------------------|----------------------|| 
----------------------------|----------------------|| 
--5--------------4-------4--|--5--------5---------*|| 
--7--------------5---5---5--|--5--------5----5----*|| 
-----0-0-0-0-0-0-----5------|-----------3----5-----|| 
----------------------------|----------------3-----|| 
 
 
riff 1                                                       
------------------------------|----------------------------| 
------------------------------|----------------------------| 
*--9--------------9---7---10--|--9--------------5---4---7--| 
*--7--------------7---7---7---|--7--------------7---7---7--| 
---0--0-0-0-0-0-0-------------|--0--0-0-0-0-0-0------------| 
------------------------------|----------------------------| 
 
 
                                                      
----------------------------|----------------------|| 
----------------------------|----------------------|| 
--5--------------4-------4--|--5--------5---------*|| 
--7--------------5---5---5--|--5--------5----5----*|| 
-----0-0-0-0-0-0-----5------|-----------3----5-----|| 
----------------------------|----------------3-----|| 
 
 
verse 1                                                              
------------------------------|--------------------------------------| 
------------------------------|--------------------------------------| 
*-----------------------------|--------------------------------------| 
*--7--------------9---10---7--|----------------10-10-9-9-12-12-10-10-| 
---7--7-7-7-7-7-7-7---7----7--|----7-7-7-7-7-7-----------------------| 
------------------------------|--------------------------------------| 
 
 
                                                        bridge              
-----------------------------|------------------------||--------------------| 
-----------------------------|------------------------||--------------------| 
-----------------------------|-----------------------*||--------------------| 
--7--------------9---10---9--|-----------10----------*||--2--------3--------| 
--7--7-7-7-7-7-7-7---7----7--|--8--------10----10-----||--2--------3--------| 
-----------------------------|--8--------8-----10-----||--0--------1--------| 
 
 
                                                               
---------------------|-------------------|-------------------| 
---------------------|-------------------|-------------------| 
--2----4----5--------|--7----------------|--9----------------| 
--2----4----5--------|--7----------------|--9----------------| 
--0----2----3--------|--5----------------|--7----------------| 
---------------------|-------------------|-------------------| 
 
 
                                                                  
--------------------------------|-------------------------------| 
--------------------------------|-------------------------------| 
--------------------------------|--2------4------5--------------| 
--2--------------3--------------|--2------4------5--------------| 
--2--------------3--------------|--0--0-0-2--2-2-3--3-3-3-3-3-3-| 
--0--0-0-0-0-0-0-1--1-1-1-1-1-1-|-------------------------------| 
 
 
                                                                     
---------------------------------|---------------------------------| 
---------------------------------|---------------------------------| 
--7------------------------------|--9------------------------------| 
--7------------------5---7---5---|--9------------------------------| 
--5--5-5-5-5-5-5-5-5-5-5-5-5-5-5-|--7--7-7-7-7-7-7-7-7-7-7-7-7-7-7-| 
---------------------------------|---------------------------------| 
 
 
Chorus                                                          
--------------------|---------------------|-------------------| 
--------------------|---------------------|-------------------| 
--------------------|--9--------4----5----|-------------------| 
--7--------------7--|-----------4----5----|--3----------------| 
--7-----------------|-----------2----3----|--3----------------| 
--5-----------------|---------------------|--1----------------| 
 
 
                                                                 
--------------------|--------------------|---------------------| 
--------------------|--------------------|---------------------| 
--5-----------------|--------------------|--9--------4----5----| 
--5--------5--------|--7--------------7--|-----------4----5----| 
--3--------5--------|--7-----------------|-----------2----3----| 
-----------3--------|--5-----------------|---------------------| 
 
 
                                          riff 1                          
-------------------|--------------------||------------------------------| 
-------------------|--------------------||------------------------------| 
--7----------------|--5-----------------||*--9--------------9---7---10--| 
--7----------------|--5--------5--------||*--7--------------7---7---7---| 
--5----------------|--3--------5--------||---0--0-0-0-0-0-0-------------| 
-------------------|-----------3--------||------------------------------| 
 
 
                                                           
----------------------------|----------------------------| 
----------------------------|----------------------------| 
--9--------------5---4---7--|--5--------------4-------4--| 
--7--------------7---7---7--|--7--------------5---5---5--| 
--0--0-0-0-0-0-0------------|-----0-0-0-0-0-0-----5------| 
----------------------------|----------------------------| 
 
 
                         verse 2                      
----------------------||------------------------------| 
----------------------||------------------------------| 
--5--------5---------*||*-----------------------------| 
--5--------5----5----*||*--7--------------9---10---7--| 
-----------3----5-----||---7--7-7-7-7-7-7-7---7----7--| 
----------------3-----||------------------------------| 
 
 
                                                                      
--------------------------------------|-----------------------------| 
--------------------------------------|-----------------------------| 
--------------------------------------|-----------------------------| 
----------------10-10-9-9-12-12-10-10-|--7--------------9---10---9--| 
----7-7-7-7-7-7-----------------------|--7--7-7-7-7-7-7-7---7----7--| 
--------------------------------------|-----------------------------| 
 
 
                          bridge                                     
------------------------||--------------------|---------------------| 
------------------------||--------------------|---------------------| 
-----------------------*||--------------------|--2----4----5--------| 
-----------10----------*||--2--------3--------|--2----4----5--------| 
--8--------10----10-----||--2--------3--------|--0----2----3--------| 
--8--------8-----10-----||--0--------1--------|---------------------| 
 
 
                                                                          
-------------------|-------------------|--------------------------------| 
-------------------|-------------------|--------------------------------| 
--7----------------|--9----------------|--------------------------------| 
--7----------------|--9----------------|--2--------------3--------------| 
--5----------------|--7----------------|--2--------------3--------------| 
-------------------|-------------------|--0--0-0-0-0-0-0-1--1-1-1-1-1-1-| 
 
 
                                                                   
-------------------------------|---------------------------------| 
-------------------------------|---------------------------------| 
--2------4------5--------------|--7------------------------------| 
--2------4------5--------------|--7------------------5---7---5---| 
--0--0-0-2--2-2-3--3-3-3-3-3-3-|--5--5-5-5-5-5-5-5-5-5-5-5-5-5-5-| 
-------------------------------|---------------------------------| 
 
 
                                  Chorus                                    
---------------------------------|--------------------|---------------------| 
---------------------------------|--------------------|---------------------| 
--9------------------------------|--------------------|--9--------4----5----| 
--9------------------------------|--7--------------7--|-----------4----5----| 
--7--7-7-7-7-7-7-7-7-7-7-7-7-7-7-|--7-----------------|-----------2----3----| 
---------------------------------|--5-----------------|---------------------| 
 
 
                                                               
-------------------|--------------------|--------------------| 
-------------------|--------------------|--------------------| 
-------------------|--5-----------------|--------------------| 
--3----------------|--5--------5--------|--7--------------7--| 
--3----------------|--3--------5--------|--7-----------------| 
--1----------------|-----------3--------|--5-----------------| 
 
 
                                                                
---------------------|-------------------|--------------------| 
---------------------|-------------------|--------------------| 
--9--------4----5----|--7----------------|--5-----------------| 
-----------4----5----|--7----------------|--5--------5--------| 
-----------2----3----|--5----------------|--3--------5--------| 
---------------------|-------------------|-----------3--------| 
 
 
presolo                                              
--------------------------|--------------------------| 
--------------------------|--------------------------| 
--9-----------------------|--------------------------| 
--9-----------------------|--------------------------| 
--7--7--7--7--7--7--7--7--|--7--7--7--7--7--7--7--7--| 
--0--0--0--0--0--0--0--0--|--0--0--0--0--0--0--0--0--| 
 
 
stick                                                
----------------------------|-----------------------| 
----------------------------|-----------------------| 
-------------------------9--|----7------------------| 
-----9--9-----10--10-----9--|----7----9-------------| 
-----7--7-----7---7---------|---------7-------------| 
--0--------0----------0-----|--------------0--0--0--| 
 
 
                                                            
-----------------------------|----------------------------| 
-----------------------------|----------------------------| 
-----------------------------|----------------------------| 
-----9--9-----10--10-----10--|-----9---9---------7--7-----| 
-----7--7-----7---7------10--|-----10--10--------9--9-----| 
--0--------0----------0------|--0----------0--0--------0--| 
 
 
                                                        
|-----------------------------|-----------------------| 
|-----------------------------|-----------------------| 
|*-------------------------9--|----7------------------| 
|*-----9--9-----10--10-----9--|----7----9-------------| 
|------7--7-----7---7---------|---------7-------------| 
|---0--------0----------0-----|--------------0--0--0--| 
 
 
                                                           2x solo 1         
-----------------------------|-----------------------------||-----|----|----| 
-----------------------------|-----------------------------||-----|----|----| 
-----------------------------|----------------------------*||*----|----|----| 
-----9--9-----10--10-----10--|-----9---9---------7--7-----*||*----|----|----| 
-----7--7-----7---7------10--|-----10--10--------9--9------||-----|----|----| 
--0--------0----------0------|--0----------0--0--------0---||-----|----|----| 
 
 
                           solo 2                                 
----|----|----|----|-----||----|----|----|----|----|----|----|----| 
----|----|----|----|-----||----|----|----|----|----|----|----|----| 
----|----|----|----|----*||----|----|----|----|----|----|----|----| 
----|----|----|----|----*||----|----|----|----|----|----|----|----| 
----|----|----|----|-----||----|----|----|----|----|----|----|----| 
----|----|----|----|-----||----|----|----|----|----|----|----|----| 
 
 
riff 1                                                     
-----------------------------|----------------------------| 
-----------------------------|----------------------------| 
--9--------------9---7---10--|--9--------------5---4---7--| 
--7--------------7---7---7---|--7--------------7---7---7--| 
--0--0-0-0-0-0-0-------------|--0--0-0-0-0-0-0------------| 
-----------------------------|----------------------------| 
 
 
                                                    
----------------------------|---------------------| 
----------------------------|---------------------| 
--5--------------4-------4--|--5--------5---------| 
--7--------------5---5---5--|--5--------5----5----| 
-----0-0-0-0-0-0-----5------|-----------3----5----| 
----------------------------|----------------3----| 
 
 
 verse 3                                                              
|------------------------------|--------------------------------------| 
|------------------------------|--------------------------------------| 
|*-----------------------------|--------------------------------------| 
|*--7--------------9---10---7--|----------------10-10-9-9-12-12-10-10-| 
|---7--7-7-7-7-7-7-7---7----7--|----7-7-7-7-7-7-----------------------| 
|------------------------------|--------------------------------------| 
 
 
                                                       bridge              
-----------------------------|-----------------------||---------------------| 
-----------------------------|-----------------------||---------------------| 
-----------------------------|----------------------*||---------------------| 
--7--------------9---10---9--|-----------10---------*||--2--------3---------| 
--7--7-7-7-7-7-7-7---7----7--|--8--------10----10----||--2--------3---------| 
-----------------------------|--8--------8-----10----||--0--------1---------| 
 
 
                                                               
---------------------|-------------------|-------------------| 
---------------------|-------------------|-------------------| 
--2----4----5--------|--7----------------|--9----------------| 
--2----4----5--------|--7----------------|--9----------------| 
--0----2----3--------|--5----------------|--7----------------| 
---------------------|-------------------|-------------------| 
 
 
                                                                  
--------------------------------|-------------------------------| 
--------------------------------|-------------------------------| 
--------------------------------|--2------4------5--------------| 
--2--------------3--------------|--2------4------5--------------| 
--2--------------3--------------|--0--0-0-2--2-2-3--3-3-3-3-3-3-| 
--0--0-0-0-0-0-0-1--1-1-1-1-1-1-|-------------------------------| 
 
 
                                                                     
---------------------------------|---------------------------------| 
---------------------------------|---------------------------------| 
--7------------------------------|--9------------------------------| 
--7------------------5---7---5---|--9------------------------------| 
--5--5-5-5-5-5-5-5-5-5-5-5-5-5-5-|--7--7-7-7-7-7-7-7-7-7-7-7-7-7-7-| 
---------------------------------|---------------------------------| 
 
 
Chorus                                                        
-------------------|--------------------|-------------------| 
-------------------|--------------------|-------------------| 
-------------------|----------4----5----|-------------------| 
--7----------------|----------4----5----|--3----------------| 
--7----------------|----------2----3----|--3----------------| 
--5----------------|--------------------|--1----------------| 
 
 
                                                               
--------------------|-------------------|--------------------| 
--------------------|-------------------|--------------------| 
--5-----------------|-------------------|----------4----5----| 
--5--------5--------|--7----------------|----------4----5----| 
--3--------5--------|--7----------------|----------2----3----| 
-----------3--------|--5----------------|--------------------| 
 
 
                                                               
-------------------|--------------------|--------------------| 
-------------------|--------------------|--------------------| 
--7----------------|--5-----------------|--------------------| 
--7----------------|--5--------5--------|--7--------------7--| 
--5----------------|--3--------5--------|--7-----------------| 
-------------------|-----------3--------|--5-----------------| 
 
 
                                                                
---------------------|-------------------|--------------------| 
---------------------|-------------------|--------------------| 
--9--------4----5----|-------------------|--5-----------------| 
-----------4----5----|--3----------------|--5--------5--------| 
-----------2----3----|--3----------------|--3--------5--------| 
---------------------|--1----------------|-----------3--------| 
 
 
                                                                
--------------------|---------------------|-------------------| 
--------------------|---------------------|-------------------| 
--------------------|--9--------4----5----|--7----------------| 
--7--------------7--|-----------4----5----|--7----------------| 
--7-----------------|-----------2----3----|--5----------------| 
--5-----------------|---------------------|-------------------| 
 
 
                      riff 1                         
--------------------||------------------------------| 
--------------------||------------------------------| 
--5-----------------||*--9--------------9---7---10--| 
--5--------5--------||*--7--------------7---7---7---| 
--3--------5--------||---0--0-0-0-0-0-0-------------| 
-----------3--------||------------------------------| 
 
 
                                                           
----------------------------|----------------------------| 
----------------------------|----------------------------| 
--9--------------5---4---7--|--5--------------4-------4--| 
--7--------------7---7---7--|--7--------------5---5---5--| 
--0--0-0-0-0-0-0------------|-----0-0-0-0-0-0-----5------| 
----------------------------|----------------------------| 
 
 _______                 ________ 
|1                      |2                                          
----------------------||-------------------|--------------------| 
----------------------||-------------------|--------------------| 
--5--------5---------*||--5----------------|----------5---------| 
--5--------5----5----*||--5----------------|----------5----5----| 
-----------3----5-----||-------------------|----------3----5----| 
----------------3-----||-------------------|---------------3----| 
 
 
                      
-------------------|| 
-------------------|| 
-------------------|| 
--7----------------|| 
--7----------------|| 
--5----------------|| 
 
-==versão 2==- 
 
    intro (first chord only played 2nd time)                                
D#||--------------------|------------------|------------------| 
A#||--------------------|------------------|------------------| 
F#||*-------------------|------------------|------------------| 
C#||*--7----------------|------------------|------------------| 
G#||---7----------------|------------------|------------------| 
D#||---5----------------|------------------|------------------| 
 
 
                        riff 1                             
----------------------||----------------------------------| 
----------------------||----------------------------------| 
-----------5---------*||*---------------------------------| 
--3--------5----5----*||*--7------------------------------| 
--3--------3----5-----||---7------------------------------| 
--1-------------3-----||---5--5-5-5-5-5-5-5-5-5-5-5-5-5-5-| 
 
 
                                                                      
----------------------------------|---------------------------------| 
----------------------------------|---------------------------------| 
----------------------------------|---------------------------------| 
----------------------------------|---------------------------------| 
----------------------------------|---------------------------------| 
--5-5-5-5-5-5-5-5-5-5-5-5-5-5-5-5-|--5--5-5-5-5-5-5-5-5-5-5-5-5-5-5-| 
 
 
                              verse 1                           
----------------------------||----------------------------------| 
----------------------------||----------------------------------| 
-----------------5---------*||*---------------------------------| 
--3--------------5----5----*||*--7------------------------------| 
--3--------------3----5-----||---7------------------------------| 
--1--1-1-1-1-1-1------3-----||---5--5-5-5-5-5-5-5-5-5-5-5-5-5-5-| 
 
 
                                                                        
------------------------------------|---------------------------------| 
------------------------------------|---------------------------------| 
------------------9-9-7-7-10-10-9-9-|---------------------------------| 
------------------------------------|--7------------------------------| 
------------------------------------|--7------------------------------| 
--5-5-5-5-5-5-5-5-------------------|--5--5-5-5-5-5-5-5-5-5-5-5-5-5-5-| 
 
 
                        bridge                                  
----------------------||--------------------|---------------------| 
----------------------||--------------------|---------------------| 
-----------5---------*||--------------------|--2----4----5--------| 
--3--------5----5----*||--2--------3--------|--2----4----5--------| 
--3--------3----5-----||--2--------3--------|--0----2----3--------| 
--1-------------3-----||--0--------1--------|---------------------| 
 
 
                                                                          
-------------------|-------------------|--------------------------------| 
-------------------|-------------------|--------------------------------| 
--7----------------|--9----------------|--------------------------------| 
--7----------------|--9----------------|--2--------------3--------------| 
--5----------------|--7----------------|--2--------------3--------------| 
-------------------|-------------------|--0--0-0-0-0-0-0-1--1-1-1-1-1-1-| 
 
 
                                                                   
-------------------------------|---------------------------------| 
-------------------------------|---------------------------------| 
--2------4------5--------------|--7------------------7---7---7---| 
--2------4------5--------------|--7------------------5---7---5---| 
--0--0-0-2--2-2-3--3-3-3-3-3-3-|--5--5-5-5-5-5-5-5-5-5-5-5-5-5-5-| 
-------------------------------|---------------------------------| 
 
 
                                  Chorus                            
---------------------------------|-------------------|--------------------| 
---------------------------------|-------------------|--------------------| 
--9------------------------------|-------------------|----------4----5----| 
--9------------------------------|--7----------------|----------4----5----| 
--7--7-7-7-7-7-7-7-7-7-7-7-7-7-7-|--7----------------|----------2----3----| 
---------------------------------|--5----------------|--------------------| 
 
 
                                                              
-------------------|--------------------|-------------------| 
-------------------|--------------------|-------------------| 
-------------------|--5-----------------|-------------------| 
--3----------------|--5--------5--------|--7----------------| 
--3----------------|--3--------5--------|--7----------------| 
--1----------------|-----------3--------|--5----------------| 
 
 
                                                               
--------------------|-------------------|--------------------| 
--------------------|-------------------|--------------------| 
----------4----5----|--7----------------|--5-----------------| 
----------4----5----|--7----------------|--5--------5--------| 
----------2----3----|--5----------------|--3--------5--------| 
--------------------|-------------------|-----------3--------| 
 
 
 riff 1                                                        
|-------------------------------|------------------------------| 
|-------------------------------|------------------------------| 
|*------------------------------|------------------------------| 
|*--7---------------------------|--7---------------------------| 
|---7--------------7----5----8--|--7--------------3----2----5--| 
|---5--5-5-5-5-5-5-5--5-5--5-5--|--5--5-5-5-5-5-5-5--5-5--5-5--| 
 
 
                                                              
------------------------------|----------------------------|| 
------------------------------|----------------------------|| 
------------------------------|-----------------5---------*|| 
--7---------------------------|--3--------------5----5----*|| 
--5--------------2---------2--|--3--------------3----5-----|| 
--5--5-5-5-5-5-5-3--3-3--3-3--|--1--1-1-1-1-1-1------3-----|| 
 
 
verse 2                                                                  
----------------------------------|------------------------------------| 
----------------------------------|------------------------------------| 
*---------------------------------|------------------9-9-7-7-10-10-9-9-| 
*--7------------------------------|------------------------------------| 
---7------------------------------|------------------------------------| 
---5--5-5-5-5-5-5-5-5-5-5-5-5-5-5-|--5-5-5-5-5-5-5-5-------------------| 
 
 
                                                          bridge              
---------------------------------|----------------------||--------------------| 
---------------------------------|----------------------||--------------------| 
---------------------------------|-----------5---------*||--------------------| 
--7------------------------------|--3--------5----5----*||--2--------3--------| 
--7------------------------------|--3--------3----5-----||--2--------3--------| 
--5--5-5-5-5-5-5-5-5-5-5-5-5-5-5-|--1-------------3-----||--0--------1--------| 
 
 
                                                               
---------------------|-------------------|-------------------| 
---------------------|-------------------|-------------------| 
--2----4----5--------|--7----------------|--9----------------| 
--2----4----5--------|--7----------------|--9----------------| 
--0----2----3--------|--5----------------|--7----------------| 
---------------------|-------------------|-------------------| 
 
 
                                                                  
--------------------------------|-------------------------------| 
--------------------------------|-------------------------------| 
--------------------------------|--2------4------5--------------| 
--2--------------3--------------|--2------4------5--------------| 
--2--------------3--------------|--0--0-0-2--2-2-3--3-3-3-3-3-3-| 
--0--0-0-0-0-0-0-1--1-1-1-1-1-1-|-------------------------------| 
 
 
                                                                     
---------------------------------|---------------------------------| 
---------------------------------|---------------------------------| 
--7------------------7---7---7---|--9------------------------------| 
--7------------------5---7---5---|--9------------------------------| 
--5--5-5-5-5-5-5-5-5-5-5-5-5-5-5-|--7--7-7-7-7-7-7-7-7-7-7-7-7-7-7-| 
---------------------------------|---------------------------------| 
 
 
Chorus                                                     
-------------------|--------------------|-------------------| 
-------------------|--------------------|-------------------| 
-------------------|----------4----5----|-------------------| 
--7----------------|----------4----5----|--3----------------| 
--7----------------|----------2----3----|--3----------------| 
--5----------------|--------------------|--1----------------| 
 
 
                                                               
--------------------|-------------------|--------------------| 
--------------------|-------------------|--------------------| 
--5-----------------|-------------------|----------4----5----| 
--5--------5--------|--7----------------|----------4----5----| 
--3--------5--------|--7----------------|----------2----3----| 
-----------3--------|--5----------------|--------------------| 
 
 
                                         presolo                    
-------------------|--------------------|--------------------------| 
-------------------|--------------------|--------------------------| 
--7----------------|--5-----------------|--9-----------------------| 
--7----------------|--5--------5--------|--9-----------------------| 
--5----------------|--3--------5--------|--7--7--7--7--7--7--7--7--| 
-------------------|-----------3--------|--0--0--0--0--0--0--0--0--| 
 
 
                           stick                                     
--------------------------|---------------------|--------------------| 
--------------------------|---------------------|--------------------| 
--------------------------|------------------5--|----7----9----------| 
--------------------------|----2--2----------5--|----7----9----------| 
--7--7--7--7--7--7--7--7--|----2--2----------3--|----5----7----------| 
--0--0--0--0--0--0--0--0--|----0--0-------------|---------0----------| 
 
 
                                                                        
------------------|----------------------||---------------------------| 
------------------|----------------------||---------------------------| 
------------------|--------------7--7----||*-----------------------5--| 
------------------|----5--5------7--7----||*-----2--2--------------5--| 
------------------|----5--5------5--5----||------2--2-----3--3-----3--| 
------------------|----3--3--------------||---0--0--0--0--0--0--0-----| 
 
 
                                                       
--------------------------|--------------------------| 
--------------------------|--------------------------| 
-----7-----9--------------|-----------------------5--| 
-----7-----9--------------|-----2--2--------------5--| 
-----5-----7--------------|-----2--2-----3--3-----3--| 
--0-----0--0--0--0--0--0--|--0--0--0--0--0--0--0-----| 
 
 
                          2x  solo 1                            
--------------------------||-----------------------------------| 
--------------------------||-----------------------------------| 
--------------------7----*||*----------------------------------| 
-----5--5--------7-------*||*--4-------------------------------| 
-----5--5-----5-----------||---4-------------------------------| 
--0--3--3--5--------------||---2-2-2-2-2-2-2-2-2-2-2-2-2-2-2-2-| 
 
 
                                                                       
----------------------------------|----------------------------------| 
----------------------------------|----------------------------------| 
----------------------------------|----------------------------------| 
--4-------------------------------|--4-------------------------------| 
--4---------------2-2-0-0---------|--4-------------------------------| 
--2-2-2-2-2-2-2-2---------4-4-0-0-|--2-2-2-2-2-2-2-2-2-2-2-2-2-2-2-2-| 
 
 
                                                                       
----------------------------------|----------------------------------| 
----------------------------------|----------------------------------| 
----------------------------------|----------------------------------| 
--2-------------------------------|--4-------------------------------| 
--2-------------------------------|--4-------------------------------| 
--0-0-0-0-0-0-0-0-0-0-0-0-0-0-0-0-|--2-2-2-2-2-2-2-2-2-2-2-2-2-2-2-2-| 
 
 
                                                                       
----------------------------------|----------------------------------| 
----------------------------------|----------------------------------| 
----------------------------------|--7-------------------------------| 
--4-------------------------------|--7-------------------------------| 
--4---------------2-2-0-0---------|--5-5-5-5-5-5-5-5-5-5-5-5-5-5-5-5-| 
--2-2-2-2-2-2-2-2---------4-4-0-0-|----------------------------------| 
 
 
                                      solo 2                                 
-----------------------------------||-------------------|-------------------| 
-----------------------------------||-------------------|-------------------| 
--4-------------------------------*||--7----------------|--4----------------| 
--4-------------------------------*||--7----------------|--4----------------| 
--2-2-2-2-2-2-2-2-2-2-0-0-2-2-4-4--||--5----------------|--2----------------| 
-----------------------------------||-------------------|-------------------| 
 
 
                                                                       
----------------------------------|----------------------------------| 
----------------------------------|----------------------------------| 
----------------------------------|----------------------------------| 
--4-------------------------------|--2-------------------------------| 
--4-------------------------------|--2-------------------------------| 
--2-2-2-2-2-2-2-2-2-2-2-2-4-4-5-5-|--0-0-0-0-0-0-0-0-0-0-0-0-0-0-0-0-| 
 
 
                                                                            
-------------------|-------------------|----------------------------------| 
-------------------|-------------------|----------------------------------| 
--7----------------|--4----------------|--6-------------------------------| 
--7----------------|--4----------------|--6-------------------------------| 
--5----------------|--2----------------|--4-4-4-4-4-4-4-4-4-4-4-4-4-4-4-4-| 
-------------------|-------------------|----------------------------------| 
 
 
                                   riff 1                                  
----------------------------------|-------------------|------------------| 
----------------------------------|-------------------|------------------| 
----------------------------------|-------------------|------------------| 
----------------------------------|--7----------------|------------------| 
--4-4-4-4-4-4-4-4-4-4-4-4-4-4-4-4-|--7----------------|------------------| 
----------------------------------|--5----------------|------------------| 
 
 
                                          verse 3                             
------------------|---------------------||----------------------------------| 
------------------|---------------------||----------------------------------| 
------------------|-----------5---------||*---------------------------------| 
------------------|--3--------5----5----||*--7------------------------------| 
------------------|--3--------3----5----||---7------------------------------| 
------------------|--1-------------3----||---5--5-5-5-5-5-5-5-5-5-5-5-5-5-5-| 
 
 
                                                                        
------------------------------------|---------------------------------| 
------------------------------------|---------------------------------| 
------------------9-9-7-7-10-10-9-9-|---------------------------------| 
------------------------------------|--7------------------------------| 
------------------------------------|--7------------------------------| 
--5-5-5-5-5-5-5-5-------------------|--5--5-5-5-5-5-5-5-5-5-5-5-5-5-5-| 
 
 
                       bridge                                      
---------------------||---------------------|---------------------| 
---------------------||---------------------|---------------------| 
-----------5--------*||---------------------|--2----4----5--------| 
--3--------5----5---*||--2--------3---------|--2----4----5--------| 
--3--------3----5----||--2--------3---------|--0----2----3--------| 
--1-------------3----||--0--------1---------|---------------------| 
 
 
                                                                          
-------------------|-------------------|--------------------------------| 
-------------------|-------------------|--------------------------------| 
--7----------------|--9----------------|--------------------------------| 
--7----------------|--9----------------|--2--------------3--------------| 
--5----------------|--7----------------|--2--------------3--------------| 
-------------------|-------------------|--0--0-0-0-0-0-0-1--1-1-1-1-1-1-| 
 
 
                                                                   
-------------------------------|---------------------------------| 
-------------------------------|---------------------------------| 
--2------4------5--------------|--7------------------7---7---7---| 
--2------4------5--------------|--7------------------5---7---5---| 
--0--0-0-2--2-2-3--3-3-3-3-3-3-|--5--5-5-5-5-5-5-5-5-5-5-5-5-5-5-| 
-------------------------------|---------------------------------| 
 
 
                                  Chorus                                  
---------------------------------|-------------------|--------------------| 
---------------------------------|-------------------|--------------------| 
--9------------------------------|-------------------|----------4----5----| 
--9------------------------------|--7----------------|----------4----5----| 
--7--7-7-7-7-7-7-7-7-7-7-7-7-7-7-|--7----------------|----------2----3----| 
---------------------------------|--5----------------|--------------------| 
 
 
                                                              
-------------------|--------------------|-------------------| 
-------------------|--------------------|-------------------| 
-------------------|--5-----------------|-------------------| 
--3----------------|--5--------5--------|--7----------------| 
--3----------------|--3--------5--------|--7----------------| 
--1----------------|-----------3--------|--5----------------| 
 
 
                                                               
--------------------|-------------------|--------------------| 
--------------------|-------------------|--------------------| 
----------4----5----|--7----------------|--5-----------------| 
----------4----5----|--7----------------|--5--------5--------| 
----------2----3----|--5----------------|--3--------5--------| 
--------------------|-------------------|-----------3--------| 
 
 
                                                              
-------------------|--------------------|-------------------| 
-------------------|--------------------|-------------------| 
-------------------|----------4----5----|-------------------| 
--7----------------|----------4----5----|--3----------------| 
--7----------------|----------2----3----|--3----------------| 
--5----------------|--------------------|--1----------------| 
 
 
                                                               
--------------------|-------------------|--------------------| 
--------------------|-------------------|--------------------| 
--5-----------------|-------------------|----------4----5----| 
--5--------5--------|--7----------------|----------4----5----| 
--3--------5--------|--7----------------|----------2----3----| 
-----------3--------|--5----------------|--------------------| 
 
 
                                          riff 1                           
-------------------|--------------------||-------------------------------| 
-------------------|--------------------||-------------------------------| 
--7----------------|--5-----------------||*------------------------------| 
--7----------------|--5--------5--------||*--7---------------------------| 
--5----------------|--3--------5--------||---7--------------7----5----8--| 
-------------------|-----------3--------||---5--5-5-5-5-5-5-5--5-5--5-5--| 
 
 
                                                               
------------------------------|------------------------------| 
------------------------------|------------------------------| 
------------------------------|------------------------------| 
--7---------------------------|--7---------------------------| 
--7--------------3----2----5--|--5--------------2---------2--| 
--5--5-5-5-5-5-5-5--5-5--5-5--|--5--5-5-5-5-5-5-3--3-3--3-3--| 
 
 _______                       _________ 
|1                            |2                      
----------------------------||--------------------------| 
----------------------------||--------------------------| 
-----------------5---------*||--------------------------| 
--3--------------5----5----*||--3--3--3--3--3--3--3--3--| 
--3--------------3----5-----||--3--3--3--3--3--3--3--3--| 
--1--1-1-1-1-1-1------3-----||--1--1--1--1--1--1--1--1--| 
 
 
                                               
------------------------|-------------------|| 
------------------------|-------------------|| 
--------------5---------|-------------------|| 
--3--3--3--3--5----5----|--7----------------|| 
--3--3--3--3--3----5----|--7----------------|| 
--1--1--1--1-------3----|--5----------------|| 
 
 

		  

See also:

tabs Hammerfall - At The End Of The Rainbow tabs Hammerfall - Blood Bound(Solo) tabs Zonaria - Image Of Myself tabs Dream Evil - Love Is Blind tabs Amaranthe - Call Out My Name tabs Witchcraft - Remembered
e-chords

Other versions:

tabs Hammerfall - The Champion
auto scroll beats size up size down change color hide chords drawings
tab show chords e-chords YouTube Clip e-chords hide all tabs e-chords go to top tab

share