Hammerfall

Ravenlord

Hammerfall

tabs

by  XXDIOGO BRUNOXX

save to print version add songbook text version e-mail correct tuner
chordsukulelecavacokeyboardtabbassdrumsharmonicaflute Guitar Pro
close

there isn't a video lesson for this song

chords

Ravenlord

	  		 Ravenlord                                      
 
 
Guitar I 
Not Sure About The Solos 
 
 
 
                                                           3x 
D#||---3--------2--------3-----|-----2--------3-----2------|| 
A#||------5--------3--------5--|--------3------------------|| 
F#||*--------4--------4--------|--4--------4-----4-----4--*|| 
C#||*--------------------------|--------------------------*|| 
G#||---------------------------|---------------------------|| 
D#||---------------------------|---------------------------|| 
 
 
                                                       
----------------------------|------------------------| 
----------------------------|------------------------| 
----------------------------|------------------------| 
--7-----5--7----------------|--7-----5--7--8----5----| 
--5---5-3--5----5-5-7-7-8-8-|--5---5-3--5--6----3----| 
----------------------------|------------------------| 
 
 
                                                     
----------------------------|----------------------| 
----------------------------|----------------------| 
----------------------------|----------------------| 
--7-----5--7----------------|--7--7--5--3----------| 
--5---5-3--5----5-5-7-7-8-8-|--5--5--3--1----------| 
----------------------------|----------------------| 
 
 
                                                       
----------------------------|------------------------| 
----------------------------|------------------------| 
----------------------------|------------------------| 
--7-----5--7----------------|--7-----5--7--8----5----| 
--5---5-3--5----5-5-7-7-8-8-|--5---5-3--5--6----3----| 
----------------------------|------------------------| 
 
 
                                                     
----------------------------|----------------------| 
----------------------------|----------------------| 
----------------------------|----------------------| 
--7-----5--7----------------|--7--7--5--3----------| 
--5---5-3--5----5-5-7-7-8-8-|--5--5--3--1----------| 
----------------------------|----------------------| 
 
 
                                                                                 
--------------------------------|---------------------|------------------------| 
--------------------------------|---------------------|------------------------| 
--------------------------------|--7------------------|--5---------------------| 
-------------------------5------|--7-------8----------|--5-------5----------3--| 
----------1--1--1--1--1--3------|--5----5--5----------|--3-------5-------------| 
--------------------------------|---------------------|-------1--3----3--5-----| 
 
 
                                                                  
----------------------|-------------------|---------------------| 
----------------------|-------------------|---------------------| 
--7-------------------|-------------------|--7------------------| 
--7-------8--------3--|--5----------------|--7-------8----------| 
--5----5--5--------1--|--3----------------|--5----5--5----------| 
----------------------|-------------------|---------------------| 
 
 
                                                                     
------------------------|----------------------|-------------------| 
------------------------|----------------------|-------------------| 
--5---------------------|--7-------------------|-------------------| 
--5-------5----------3--|--7-------8--------3--|--5----------------| 
--3-------5-------------|--5----5--5--------1--|--3----------------| 
-------1--3----3--5-----|----------------------|-------------------| 
 
 
                                                       
----------------------------|------------------------| 
----------------------------|------------------------| 
----------------------------|------------------------| 
--7-----5--7----------------|--7-----5--7--8----5----| 
--5---5-3--5----5-5-7-7-8-8-|--5---5-3--5--6----3----| 
----------------------------|------------------------| 
 
 
                                                     
----------------------------|----------------------| 
----------------------------|----------------------| 
----------------------------|----------------------| 
--7-----5--7----------------|--7--7--5--3----------| 
--5---5-3--5----5-5-7-7-8-8-|--5--5--3--1----------| 
----------------------------|----------------------| 
 
 
                                                       
----------------------------|------------------------| 
----------------------------|------------------------| 
----------------------------|------------------------| 
--7-----5--7----------------|--7-----5--7--8----5----| 
--5---5-3--5----5-5-7-7-8-8-|--5---5-3--5--6----3----| 
----------------------------|------------------------| 
 
 
                                                                           
----------------------------|----------------------|---------------------| 
----------------------------|----------------------|---------------------| 
----------------------------|----------------------|--7------------------| 
--7-----5--7----------------|--7--7--5--3----------|--7-------8----------| 
--5---5-3--5----5-5-7-7-8-8-|--5--5--3--1----------|--5----5--5----------| 
----------------------------|----------------------|---------------------| 
 
 
                                                                     
------------------------|----------------------|-------------------| 
------------------------|----------------------|-------------------| 
--5---------------------|--7-------------------|-------------------| 
--5-------5----------3--|--7-------8--------3--|--5----------------| 
--3-------5-------------|--5----5--5--------1--|--3----------------| 
-------1--3----3--5-----|----------------------|-------------------| 
 
 
                                                                       
---------------------|------------------------|----------------------| 
---------------------|------------------------|----------------------| 
--7------------------|--5---------------------|--7-------------------| 
--7-------8----------|--5-------5----------3--|--7-------8--------3--| 
--5----5--5----------|--3-------5-------------|--5----5--5--------1--| 
---------------------|-------1--3----3--5-----|----------------------| 
 
 
                                                                         
-------------------|--------------------------|------------------------| 
-------------------|--------------------------|------------------------| 
-------------------|---------9-----------9----|--12----11----7----9----| 
--5----------------|---------9-----------9----|--12----11----7----9----| 
--3----------------|---------7-----------7----|--10----9-----5----7----| 
-------------------|--0--0-0------0--0-0------|------------------------| 
 
 
                                                     
--------------------------|------------------------| 
--------------------------|------------------------| 
---------9-----------9----|--12----11----7----9----| 
---------9-----------9----|--12----11----7----9----| 
---------7-----------7----|--10----9-----5----7----| 
--0--0-0------0--0-0------|------------------------| 
 
 
                                                               
------------------------------|------------------------------| 
------------------------------|------------------------------| 
------------------------------|------------------------------| 
--5------5------5------5------|--4------4------4------4------| 
--3--3-3-3--3-3-3--3-3-3--3-3-|--2--2-2-2--2-2-2--2-2-2--2-2-| 
------------------------------|------------------------------| 
 
 
                                                                                
--------------------------|------------------------|--------------------------| 
--------------------------|------------------------|--------------------------| 
--7--------7--------7-----|-----7--------7----5----|--------------------------| 
--7--------7--------7-----|-----7--------7----5----|--3-----------5-----------| 
--5--5--5--5--5--5--5--5--|--5--5--5--5--5----3----|--1--1--1--1--3--3--3--3--| 
--------------------------|------------------------|--------------------------| 
 
 
                                                                               
------------------------|---------------------------|------------------------| 
------------------------|---------------------------|------------------------| 
------------------------|---------------------------|--------------7----5----| 
--5h-7------------------|--10-----------5-----------|--5h-7--------7----5----| 
--5--5--5--5--5----7----|--8---8--8--8--3--3--3--3--|--5--5--5--5--5----3----| 
------------------------|---------------------------|------------------------| 
 
 
                                                                               
--------------------------|------------------------|-------------------------| 
--------------------------|------------------------|-------------------------| 
--------------------------|------------------------|-------------------------| 
--3-----------5-----------|--5h-7------------------|--10----------3----------| 
--1--1--1--1--3--3--3--3--|--5--5--5--5--5----7----|--8-----8--8--1----1--1--| 
--------------------------|------------------------|-------------------------| 
 
 
                                                                             
---------------------|----------------------------|------------------------| 
---------------------|----------------------------|------------------------| 
--5------------------|----------------------------|------------------------| 
--5------------3--5--|--7-----5--7----------------|--7-----5--7--8----5----| 
--3------------1--3--|--5---5-3--5----5-5-7-7-8-8-|--5---5-3--5--6----3----| 
---------------------|----------------------------|------------------------| 
 
 
                                                     
----------------------------|----------------------| 
----------------------------|----------------------| 
----------------------------|----------------------| 
--7-----5--7----------------|--7--7--5--3----------| 
--5---5-3--5----5-5-7-7-8-8-|--5--5--3--1----------| 
----------------------------|----------------------| 
 
 
                                                       
----------------------------|------------------------| 
----------------------------|------------------------| 
----------------------------|------------------------| 
--7-----5--7----------------|--7-----5--7--8----5----| 
--5---5-3--5----5-5-7-7-8-8-|--5---5-3--5--6----3----| 
----------------------------|------------------------| 
 
 
                                                                           
----------------------------|----------------------|---------------------| 
----------------------------|----------------------|---------------------| 
----------------------------|----------------------|--7------------------| 
--7-----5--7----------------|--7--7--5--3----------|--7-------8----------| 
--5---5-3--5----5-5-7-7-8-8-|--5--5--3--1----------|--5----5--5----------| 
----------------------------|----------------------|---------------------| 
 
 
                                                                     
------------------------|----------------------|-------------------| 
------------------------|----------------------|-------------------| 
--5---------------------|--7-------------------|-------------------| 
--5-------5----------3--|--7-------8--------3--|--5----------------| 
--3-------5-------------|--5----5--5--------1--|--3----------------| 
-------1--3----3--5-----|----------------------|-------------------| 
 
 
                                                                       
---------------------|------------------------|----------------------| 
---------------------|------------------------|----------------------| 
--7------------------|--5---------------------|--7-------------------| 
--7-------8----------|--5-------5----------3--|--7-------8--------3--| 
--5----5--5----------|--3-------5-------------|--5----5--5--------1--| 
---------------------|-------1--3----3--5-----|----------------------| 
 
 
                                                                         
-------------------|--------------------------|------------------------| 
-------------------|--------------------------|------------------------| 
-------------------|---------9-----------9----|--12----11----7----9----| 
--5----------------|---------9-----------9----|--12----11----7----9----| 
--3----------------|---------7-----------7----|--10----9-----5----7----| 
-------------------|--0--0-0------0--0-0------|------------------------| 
 
 
                                                     
--------------------------|------------------------| 
--------------------------|------------------------| 
---------9-----------9----|--12----11----7----9----| 
---------9-----------9----|--12----11----7----9----| 
---------7-----------7----|--10----9-----5----7----| 
--0--0-0------0--0-0------|------------------------| 
 
 
                                                               
------------------------------|------------------------------| 
------------------------------|------------------------------| 
------------------------------|------------------------------| 
--5------5------5------5------|--4------4------4------4------| 
--3--3-3-3--3-3-3--3-3-3--3-3-|--2--2-2-2--2-2-2--2-2-2--2-2-| 
------------------------------|------------------------------| 
 
 
                                                                                
--------------------------|------------------------|--------------------------| 
--------------------------|------------------------|--------------------------| 
--7--------7--------7-----|-----7--------7----5----|--------------------------| 
--7--------7--------7-----|-----7--------7----5----|--3-----------5-----------| 
--5--5--5--5--5--5--5--5--|--5--5--5--5--5----3----|--1--1--1--1--3--3--3--3--| 
--------------------------|------------------------|--------------------------| 
 
 
                                                                               
------------------------|---------------------------|------------------------| 
------------------------|---------------------------|------------------------| 
------------------------|---------------------------|--------------7----5----| 
--5h-7------------------|--10-----------5-----------|--5h-7--------7----5----| 
--5--5--5--5--5----7----|--8---8--8--8--3--3--3--3--|--5--5--5--5--5----3----| 
------------------------|---------------------------|------------------------| 
 
 
                                                                               
--------------------------|------------------------|-------------------------| 
--------------------------|------------------------|-------------------------| 
--------------------------|------------------------|-------------------------| 
--3-----------5-----------|--5h-7------------------|--10----------3----------| 
--1--1--1--1--3--3--3--3--|--5--5--5--5--5----7----|--8-----8--8--1----1--1--| 
--------------------------|------------------------|-------------------------| 
 
 
                                                      
---------------------|------------------------------| 
---------------------|--15b---15r---15p-12------15--| 
--5------------------|----------------------14b-----| 
--5------------5--7--|------------------------------| 
--3------------3--5--|------------------------------| 
---------------------|------------------------------| 
 
 
                                                                             
--15b-15------------17b-------|--19--12-12-17--12-12-15--12-12-14p12-------| 
----------------17------------|--------------------------------------12----| 
----------17h19---------------|-----------------------------------------14-| 
------------------------------|--------------------------------------------| 
------------------------------|--------------------------------------------| 
------------------------------|--------------------------------------------| 
 
 
                                      
------------------------------------| 
------------------------------------| 
------------------------------------| 
--14p12p10----------------12~-------| 
-----------14p12p10-12h14-----------| 
------------------------------------| 
 
 
                                                    
--------------19----------------------19----------| 
--------17h20----20p17----------17h20----20p17----| 
--16h19----------------16-16h19----------------16-| 
--------------------------------------------------| 
--------------------------------------------------| 
--------------------------------------------------| 
 
 
                                                                                 
-----------12h15p12-------------------17----------|--17b-----17b---17--15------| 
--------15----------15----------15h17----17p15----|------------------------15--| 
--12h16----------------16-14h16----------------16-|----------------------------| 
--------------------------------------------------|----------------------------| 
--------------------------------------------------|----------------------------| 
--------------------------------------------------|----------------------------| 
 
 
                                                          
----------15--------------|-----------------------------| 
------15------------------|-----------------------------| 
--14----------16~---------|-----------------------------| 
--------------------------|--7------7------7------7--5--| 
--------------------------|--5--5-5-5--5-5-5--5-5-5--3--| 
--------------------------|-----------------------------| 
 
 
                                                            
------------------------------|---------------------------| 
------------------------------|---------------------------| 
------------------------------|---------------------------| 
--3------3------5------5------|--7------7--8--7--5--------| 
--1--1-1-1--1-1-3--3-3-3--3-3-|--5--5-5-5-----------8--7--| 
------------------------------|---------------------------| 
 
 
                                                      
----------------------|-----------------------------| 
----------------------|-----------------------------| 
----------------------|-----------------------------| 
--------------5--5----|--7------7------7------7--5--| 
--5-----------3--3----|--5--5-5-5--5-5-5--5-5-5--3--| 
--3------5------------|-----------------------------| 
 
 
                                                            
------------------------------|---------------------------| 
------------------------------|---------------------------| 
------------------------------|---------------------------| 
--3------3------5------5------|--7------7--8--7--5--------| 
--1--1-1-1--1-1-3--3-3-3--3-3-|--5--5-5-5-----------8--7--| 
------------------------------|---------------------------| 
 
 
                                                                              
----------------------|--3--------2--------3-----|-----2--------3-----2-----| 
----------------------|-----5--------3--------5--|--------3-----------------| 
----------------------|--------4--------4--------|--4--------4-----4-----4--| 
--------------5--5----|--------------------------|--------------------------| 
--5-----------3--3----|--------------------------|--------------------------| 
--3------5------------|--------------------------|--------------------------| 
 
 
                                                       
--3--------2--------3-----|-----2--------3-----2-----| 
-----5--------3--------5--|--------3-----------------| 
--------4--------4--------|--4--------4-----4-----4--| 
--------------------------|--------------------------| 
--------------------------|--------------------------| 
--------------------------|--------------------------| 
 
 
                                                                                
--------------------------|------------------------|--------------------------| 
--------------------------|------------------------|--------------------------| 
---------9-----------9----|--12----11----7----9----|---------9-----------9----| 
---------9-----------9----|--12----11----7----9----|---------9-----------9----| 
---------7-----------7----|--10----9-----5----7----|---------7-----------7----| 
--0--0-0------0--0-0------|------------------------|--0--0-0------0--0-0------| 
 
 
                                                         
------------------------|------------------------------| 
------------------------|------------------------------| 
--12----11----7----9----|------------------------------| 
--12----11----7----9----|--5------5------5------5------| 
--10----9-----5----7----|--3--3-3-3--3-3-3--3-3-3--3-3-| 
------------------------|------------------------------| 
 
 
                                                           
------------------------------|--------------------------| 
------------------------------|--------------------------| 
------------------------------|--7--------7--------7-----| 
--4------4------4------4------|--7--------7--------7-----| 
--2--2-2-2--2-2-2--2-2-2--2-2-|--5--5--5--5--5--5--5--5--| 
------------------------------|--------------------------| 
 
 
                                                                              
------------------------|--------------------------|------------------------| 
------------------------|--------------------------|------------------------| 
-----7--------7----5----|--------------------------|------------------------| 
-----7--------7----5----|--3-----------5-----------|--5h-7------------------| 
--5--5--5--5--5----3----|--1--1--1--1--3--3--3--3--|--5--5--5--5--5----7----| 
------------------------|--------------------------|------------------------| 
 
 
                                                                                 
---------------------------|------------------------|--------------------------| 
---------------------------|------------------------|--------------------------| 
---------------------------|--------------7----5----|--------------------------| 
--10-----------5-----------|--5h-7--------7----5----|--3-----------5-----------| 
--8---8--8--8--3--3--3--3--|--5--5--5--5--5----3----|--1--1--1--1--3--3--3--3--| 
---------------------------|------------------------|--------------------------| 
 
 
                                                                          
------------------------|-------------------------|---------------------| 
------------------------|-------------------------|---------------------| 
------------------------|-------------------------|--5--------7----5----| 
--5h-7------------------|--10----------3----------|--5--------7----5----| 
--5--5--5--5--5----7----|--8-----8--8--1----1--1--|--3--------5----3----| 
------------------------|-------------------------|---------------------| 
 
 
                                                                                 
--------------------------|------------------------|---------------------------| 
--------------------------|------------------------|---------------------------| 
--------------------------|------------------------|---------------------------| 
--3-----------5-----------|--5h-7------------------|--10-----------5-----------| 
--1--1--1--1--3--3--3--3--|--5--5--5--5--5----7----|--8---8--8--8--3--3--3--3--| 
--------------------------|------------------------|---------------------------| 
 
 
                                                                            
------------------------|--------------------------|----------------------| 
------------------------|--------------------------|----------------------| 
--------------7----5----|--------------------------|----------------------| 
--5h-7--------7----5----|--3-----------5-----------|--5h-7----------------| 
--5--5--5--5--5----3----|--1--1--1--1--3--3--3--3--|--5--5--5--5----------| 
------------------------|--------------------------|----------------------| 
 
 
                                                                 
------------------|-----------------------|-------------------|| 
------------------|-----------------------|-------------------|| 
------------------|-----------------------|--7----------------|| 
------------------|----------10--9--7--5--|--7----------------|| 
------------------|----------8---7--5--3--|--5----------------|| 
------------------|-----------------------|-------------------|| 
Guitar II 
Not Sure About The Solos 
 
 
 
                                                           3x 
D#||---7--------5--------7-----|-----5--------7-----5------|| 
A#||------8--------7--------8--|--------7------------------|| 
F#||*--------7--------7--------|--7--------7-----7-----7--*|| 
C#||*--------------------------|--------------------------*|| 
G#||---------------------------|---------------------------|| 
D#||---------------------------|---------------------------|| 
 
 
                                                       
----------------------------|------------------------| 
----------------------------|------------------------| 
----------------------------|------------------------| 
--7-----5--7----------------|--7-----5--7--8----5----| 
--5---5-3--5----5-5-7-7-8-8-|--5---5-3--5--6----3----| 
----------------------------|------------------------| 
 
 
                                                     
----------------------------|----------------------| 
----------------------------|----------------------| 
----------------------------|----------------------| 
--7-----5--7----------------|--7--7--5--3----------| 
--5---5-3--5----5-5-7-7-8-8-|--5--5--3--1----------| 
----------------------------|----------------------| 
 
 
                                                       
----------------------------|------------------------| 
----------------------------|------------------------| 
----------------------------|------------------------| 
--7-----5--7----------------|--7-----5--7--8----5----| 
--5---5-3--5----5-5-7-7-8-8-|--5---5-3--5--6----3----| 
----------------------------|------------------------| 
 
 
                                                     
----------------------------|----------------------| 
----------------------------|----------------------| 
----------------------------|----------------------| 
--7-----5--7----------------|--7--7--5--3----------| 
--5---5-3--5----5-5-7-7-8-8-|--5--5--3--1----------| 
----------------------------|----------------------| 
 
 
                                                                                 
--------------------------------|---------------------|------------------------| 
--------------------------------|---------------------|------------------------| 
--------------------------------|--7------------------|--5---------------------| 
-------------------------5------|--7-------8----------|--5-------5----------3--| 
----------1--1--1--1--1--3------|--5----5--5----------|--3-------5-------------| 
--------------------------------|---------------------|-------1--3----3--5-----| 
 
 
                                                                  
----------------------|-------------------|---------------------| 
----------------------|-------------------|---------------------| 
--7-------------------|-------------------|--7------------------| 
--7-------8--------3--|--5----------------|--7-------8----------| 
--5----5--5--------1--|--3----------------|--5----5--5----------| 
----------------------|-------------------|---------------------| 
 
 
                                                                     
------------------------|----------------------|-------------------| 
------------------------|----------------------|-------------------| 
--5---------------------|--7-------------------|-------------------| 
--5-------5----------3--|--7-------8--------3--|--5----------------| 
--3-------5-------------|--5----5--5--------1--|--3----------------| 
-------1--3----3--5-----|----------------------|-------------------| 
 
 
                                                       
----------------------------|------------------------| 
----------------------------|------------------------| 
----------------------------|------------------------| 
--7-----5--7----------------|--7-----5--7--8----5----| 
--5---5-3--5----5-5-7-7-8-8-|--5---5-3--5--6----3----| 
----------------------------|------------------------| 
 
 
                                                     
----------------------------|----------------------| 
----------------------------|----------------------| 
----------------------------|----------------------| 
--7-----5--7----------------|--7--7--5--3----------| 
--5---5-3--5----5-5-7-7-8-8-|--5--5--3--1----------| 
----------------------------|----------------------| 
 
 
                                                       
----------------------------|------------------------| 
----------------------------|------------------------| 
----------------------------|------------------------| 
--7-----5--7----------------|--7-----5--7--8----5----| 
--5---5-3--5----5-5-7-7-8-8-|--5---5-3--5--6----3----| 
----------------------------|------------------------| 
 
 
                                                                           
----------------------------|----------------------|---------------------| 
----------------------------|----------------------|---------------------| 
----------------------------|----------------------|--7------------------| 
--7-----5--7----------------|--7--7--5--3----------|--7-------8----------| 
--5---5-3--5----5-5-7-7-8-8-|--5--5--3--1----------|--5----5--5----------| 
----------------------------|----------------------|---------------------| 
 
 
                                                                     
------------------------|----------------------|-------------------| 
------------------------|----------------------|-------------------| 
--5---------------------|--7-------------------|-------------------| 
--5-------5----------3--|--7-------8--------3--|--5----------------| 
--3-------5-------------|--5----5--5--------1--|--3----------------| 
-------1--3----3--5-----|----------------------|-------------------| 
 
 
                                                                       
---------------------|------------------------|----------------------| 
---------------------|------------------------|----------------------| 
--7------------------|--5---------------------|--7-------------------| 
--7-------8----------|--5-------5----------3--|--7-------8--------3--| 
--5----5--5----------|--3-------5-------------|--5----5--5--------1--| 
---------------------|-------1--3----3--5-----|----------------------| 
 
 
                                                                         
-------------------|--------------------------|------------------------| 
-------------------|--------------------------|------------------------| 
-------------------|---------9-----------9----|--12----11----7----9----| 
--5----------------|---------9-----------9----|--12----11----7----9----| 
--3----------------|---------7-----------7----|--10----9-----5----7----| 
-------------------|--0--0-0------0--0-0------|------------------------| 
 
 
                                                     
--------------------------|------------------------| 
--------------------------|------------------------| 
---------9-----------9----|--12----11----7----9----| 
---------9-----------9----|--12----11----7----9----| 
---------7-----------7----|--10----9-----5----7----| 
--0--0-0------0--0-0------|------------------------| 
 
 
                                                               
------------------------------|------------------------------| 
------------------------------|------------------------------| 
------------------------------|------------------------------| 
--5------5------5------5------|--4------4------4------4------| 
--3--3-3-3--3-3-3--3-3-3--3-3-|--2--2-2-2--2-2-2--2-2-2--2-2-| 
------------------------------|------------------------------| 
 
 
                                                                                
--------------------------|------------------------|--------------------------| 
--------------------------|------------------------|--------------------------| 
--7--------7--------7-----|-----7--------7----5----|--------------------------| 
--7--------7--------7-----|-----7--------7----5----|--3-----------5-----------| 
--5--5--5--5--5--5--5--5--|--5--5--5--5--5----3----|--1--1--1--1--3--3--3--3--| 
--------------------------|------------------------|--------------------------| 
 
 
                                                                                
-------------------------|---------------------------|------------------------| 
-------------------------|---------------------------|------------------------| 
-------------------------|---------------------------|--------------7----5----| 
--5h-7-------------------|--10-----------5-----------|--5h-7--------7----5----| 
--5--5--5--5--8----10----|--8---8--8--8--3--3--3--3--|--5--5--5--5--5----3----| 
-------------------------|---------------------------|------------------------| 
 
 
                                                                                
--------------------------|-------------------------|-------------------------| 
--------------------------|-------------------------|-------------------------| 
--------------------------|-------------------------|-------------------------| 
--3-----------5-----------|--5h-7-------------------|--10----------3----------| 
--1--1--1--1--3--3--3--3--|--5--5--5--5--8----10----|--8-----8--8--1----1--1--| 
--------------------------|-------------------------|-------------------------| 
 
 
                                                                             
---------------------|----------------------------|------------------------| 
---------------------|----------------------------|------------------------| 
--5------------------|----------------------------|------------------------| 
--5------------3--5--|--7-----5--7----------------|--7-----5--7--8----5----| 
--3------------1--3--|--5---5-3--5----5-5-7-7-8-8-|--5---5-3--5--6----3----| 
---------------------|----------------------------|------------------------| 
 
 
                                                     
----------------------------|----------------------| 
----------------------------|----------------------| 
----------------------------|----------------------| 
--7-----5--7----------------|--7--7--5--3----------| 
--5---5-3--5----5-5-7-7-8-8-|--5--5--3--1----------| 
----------------------------|----------------------| 
 
 
                                                       
----------------------------|------------------------| 
----------------------------|------------------------| 
----------------------------|------------------------| 
--7-----5--7----------------|--7-----5--7--8----5----| 
--5---5-3--5----5-5-7-7-8-8-|--5---5-3--5--6----3----| 
----------------------------|------------------------| 
 
 
                                                                           
----------------------------|----------------------|---------------------| 
----------------------------|----------------------|---------------------| 
----------------------------|----------------------|--7------------------| 
--7-----5--7----------------|--7--7--5--3----------|--7-------8----------| 
--5---5-3--5----5-5-7-7-8-8-|--5--5--3--1----------|--5----5--5----------| 
----------------------------|----------------------|---------------------| 
 
 
                                                                     
------------------------|----------------------|-------------------| 
------------------------|----------------------|-------------------| 
--5---------------------|--7-------------------|-------------------| 
--5-------5----------3--|--7-------8--------3--|--5----------------| 
--3-------5-------------|--5----5--5--------1--|--3----------------| 
-------1--3----3--5-----|----------------------|-------------------| 
 
 
                                                                       
---------------------|------------------------|----------------------| 
---------------------|------------------------|----------------------| 
--7------------------|--5---------------------|--7-------------------| 
--7-------8----------|--5-------5----------3--|--7-------8--------3--| 
--5----5--5----------|--3-------5-------------|--5----5--5--------1--| 
---------------------|-------1--3----3--5-----|----------------------| 
 
 
                                                                         
-------------------|--------------------------|------------------------| 
-------------------|--------------------------|------------------------| 
-------------------|---------9-----------9----|--12----11----7----9----| 
--5----------------|---------9-----------9----|--12----11----7----9----| 
--3----------------|---------7-----------7----|--10----9-----5----7----| 
-------------------|--0--0-0------0--0-0------|------------------------| 
 
 
                                                     
--------------------------|------------------------| 
--------------------------|------------------------| 
---------9-----------9----|--12----11----7----9----| 
---------9-----------9----|--12----11----7----9----| 
---------7-----------7----|--10----9-----5----7----| 
--0--0-0------0--0-0------|------------------------| 
 
 
                                                               
------------------------------|------------------------------| 
------------------------------|------------------------------| 
------------------------------|------------------------------| 
--5------5------5------5------|--4------4------4------4------| 
--3--3-3-3--3-3-3--3-3-3--3-3-|--2--2-2-2--2-2-2--2-2-2--2-2-| 
------------------------------|------------------------------| 
 
 
                                                                                
--------------------------|------------------------|--------------------------| 
--------------------------|------------------------|--------------------------| 
--7--------7--------7-----|-----7--------7----5----|--------------------------| 
--7--------7--------7-----|-----7--------7----5----|--3-----------5-----------| 
--5--5--5--5--5--5--5--5--|--5--5--5--5--5----3----|--1--1--1--1--3--3--3--3--| 
--------------------------|------------------------|--------------------------| 
 
 
                                                                                
-------------------------|---------------------------|------------------------| 
-------------------------|---------------------------|------------------------| 
-------------------------|---------------------------|--------------7----5----| 
--5h-7-------------------|--10-----------5-----------|--5h-7--------7----5----| 
--5--5--5--5--8----10----|--8---8--8--8--3--3--3--3--|--5--5--5--5--5----3----| 
-------------------------|---------------------------|------------------------| 
 
 
                                                                                
--------------------------|-------------------------|-------------------------| 
--------------------------|-------------------------|-------------------------| 
--------------------------|-------------------------|-------------------------| 
--3-----------5-----------|--5h-7-------------------|--10----------3----------| 
--1--1--1--1--3--3--3--3--|--5--5--5--5--8----10----|--8-----8--8--1----1--1--| 
--------------------------|-------------------------|-------------------------| 
 
 
                                                      
---------------------|------------------------------| 
---------------------|------------------------------| 
--5------------------|------------------------------| 
--5------------5--7--|--9------9------9------9------| 
--3------------3--5--|--7--7-7-7--7-7-7--7-7-7--7-7-| 
---------------------|------------------------------| 
 
 
                                                              
------------------------------|-----------------------------| 
------------------------------|-----------------------------| 
------------------------------|-----------------------------| 
--5------5------7------7------|--9------9--10--9--7---------| 
--3--3-3-3--3-3-5--5-5-5--5-5-|--7--7-7-7------------10--9--| 
------------------------------|-----------------------------| 
 
 
                                                       
----------------------|------------------------------| 
----------------------|------------------------------| 
----------------------|------------------------------| 
--2-----------7--7----|--9------9------9------9------| 
--0------2----5--5----|--7--7-7-7--7-7-7--7-7-7--7-7-| 
----------------------|------------------------------| 
 
 
                                                              
------------------------------|-----------------------------| 
------------------------------|-----------------------------| 
------------------------------|-----------------------------| 
--5------5------7------7------|--9------9--10--9--7---------| 
--3--3-3-3--3-3-5--5-5-5--5-5-|--7--7-7-7------------10--9--| 
------------------------------|-----------------------------| 
 
 
                                                     
----------------------|----------------------------| 
----------------------|--13r-----13b-------17------| 
----------------------|----------------14------14--| 
--2-----------7--7----|----------------------------| 
--0------2----5--5----|----------------------------| 
----------------------|----------------------------| 
 
 
                                                                            
------------20b----------10-|--13p10-----10p8-------10--------12h13p12----| 
--18r-----------------10----|--------13-------11p10--------13----------13-| 
--------14------------------|---------------------------14----------------| 
----------------------------|---------------------------------------------| 
----------------------------|---------------------------------------------| 
----------------------------|---------------------------------------------| 
 
 
                                  
--------------------------------| 
--15--13------------------------| 
---------15p14-13-12----12b-----| 
--------------------------------| 
--------------------------------| 
--------------------------------| 
 
 
                                                    
--------------------------------------------------| 
--------------------------------------------------| 
-----------------------------------12h14h15-14h15-| 
--------------12----12h14h15p14h15----------------| 
--15p12-12h15----15-------------------------------| 
--------------------------------------------------| 
 
 
                                                    
--------------------------------------------13h17-| 
--------------------------------------15h17-------| 
--------12h14h15----12h14h15-12/14h17-------------| 
--14h15----------15-------------------------------| 
--------------------------------------------------| 
--------------------------------------------------| 
 
 
                                                                         
--18p17p15----15----------------------13h15-13h17-|--20~---------------| 
-----------18----18p17p15-------15h17-------------|--------------------| 
--------------------------14h17-------------------|--------------------| 
--------------------------------------------------|--------------------| 
--------------------------------------------------|--------------------| 
--------------------------------------------------|--------------------| 
 
 
                                                       
--7--------5--------7-----|-----5--------7-----5-----| 
-----8--------7--------8--|--------7-----------------| 
--------7--------7--------|--7--------7-----7-----7--| 
--------------------------|--------------------------| 
--------------------------|--------------------------| 
--------------------------|--------------------------| 
 
 
                                                       
--7--------5--------7-----|-----5--------7-----5-----| 
-----8--------7--------8--|--------7-----------------| 
--------7--------7--------|--7--------7-----7-----7--| 
--------------------------|--------------------------| 
--------------------------|--------------------------| 
--------------------------|--------------------------| 
 
 
                                                                                
--------------------------|------------------------|--------------------------| 
--------------------------|------------------------|--------------------------| 
---------9-----------9----|--12----11----7----9----|---------9-----------9----| 
---------9-----------9----|--12----11----7----9----|---------9-----------9----| 
---------7-----------7----|--10----9-----5----7----|---------7-----------7----| 
--0--0-0------0--0-0------|------------------------|--0--0-0------0--0-0------| 
 
 
                                                         
------------------------|------------------------------| 
------------------------|------------------------------| 
--12----11----7----9----|------------------------------| 
--12----11----7----9----|--5------5------5------5------| 
--10----9-----5----7----|--3--3-3-3--3-3-3--3-3-3--3-3-| 
------------------------|------------------------------| 
 
 
                                                           
------------------------------|--------------------------| 
------------------------------|--------------------------| 
------------------------------|--7--------7--------7-----| 
--4------4------4------4------|--7--------7--------7-----| 
--2--2-2-2--2-2-2--2-2-2--2-2-|--5--5--5--5--5--5--5--5--| 
------------------------------|--------------------------| 
 
 
                                                                               
------------------------|--------------------------|-------------------------| 
------------------------|--------------------------|-------------------------| 
-----7--------7----5----|--------------------------|-------------------------| 
-----7--------7----5----|--3-----------5-----------|--5h-7-------------------| 
--5--5--5--5--5----3----|--1--1--1--1--3--3--3--3--|--5--5--5--5--8----10----| 
------------------------|--------------------------|-------------------------| 
 
 
                                                                                 
---------------------------|------------------------|--------------------------| 
---------------------------|------------------------|--------------------------| 
---------------------------|--------------7----5----|--------------------------| 
--10-----------5-----------|--5h-7--------7----5----|--3-----------5-----------| 
--8---8--8--8--3--3--3--3--|--5--5--5--5--5----3----|--1--1--1--1--3--3--3--3--| 
---------------------------|------------------------|--------------------------| 
 
 
                                                                           
-------------------------|-------------------------|---------------------| 
-------------------------|-------------------------|---------------------| 
-------------------------|-------------------------|--5------------------| 
--5h-7-------------------|--10----------3----------|--5------------3--5--| 
--5--5--5--5--8----10----|--8-----8--8--1----1--1--|--3------------1--3--| 
-------------------------|-------------------------|---------------------| 
 
 
                                                      
--------------------------|-------------------------| 
--------------------------|-------------------------| 
--------------------------|-------------------------| 
--3-----------5-----------|--5h-7-------------------| 
--1--1--1--1--3--3--3--3--|--5--5--5--5--8----10----| 
--------------------------|-------------------------| 
 
 
                                                                                 
---------------------------|------------------------|--------------------------| 
---------------------------|------------------------|--------------------------| 
---------------------------|--------------7----5----|--------------------------| 
--10-----------5-----------|--5h-7--------7----5----|--3-----------5-----------| 
--8---8--8--8--3--3--3--3--|--5--5--5--5--5----3----|--1--1--1--1--3--3--3--3--| 
---------------------------|------------------------|--------------------------| 
 
 
                                                                   
----------------------|------------------|-----------------------| 
----------------------|------------------|-----------------------| 
----------------------|------------------|-----------------------| 
--5h-7----------------|------------------|----------10--9--7--5--| 
--5--5--5--5----------|------------------|----------8---7--5--3--| 
----------------------|------------------|-----------------------| 
 
 
                      
-------------------|| 
-------------------|| 
--7----------------|| 
--7----------------|| 
--5----------------|| 
-------------------|| 

		  

See also:

tabs Hammerfall - At The End Of The Rainbow tabs Hammerfall - Blood Bound(Solo) tabs Zonaria - Image Of Myself tabs Dream Evil - Love Is Blind tabs Amaranthe - Call Out My Name tabs Witchcraft - Remembered
e-chords

Other versions:

tabs Hammerfall - Ravenlord
auto scroll beats size up size down change color hide chords drawings
tab show chords e-chords YouTube Clip e-chords hide all tabs e-chords go to top tab

share